Song name
# A B C D E F G H I J K L M N O P Q R S T U V W X Y Z

Best Coast - Thats The Way Boys Are tab

-------------------------------------------------------------------------------
			  That's the Way Boys Are - Best Coast
-------------------------------------------------------------------------------

Tuning: Standard

e|---------------------------|
B|---------------------------|    This goes throughout the entire song except the pre-chorus
G|---------------------------|
D|--8--8---7-7--3-3--5-5-----|
A|--8--8---7-7--3-3--5-5-----|
E|--10-10--5-5--1-1--3-3-----|

Pre-Chorus:
e|------------------------------------------------------------------------------|
B|------------------------------------------------------------------------------|
G|------------------------------------------------------------------------------|
D|--3-3-3-3-3--5-5-5-5-5--3-3-3-3-3----5----------------------------------------|
A|--3-3-3-3-3--5-5-5-5-5--3-3-3-3-3----5----------------------------------------|
E|--1-1-1-1-1--3-3-3-3-3--1-1-1-1-1----3----------------------------------------|
Tap to rate this tab
 
# A B C D E F G H I J K L M N O P Q R S T U V W X Y Z