Best Coast - Boyfriend tab

-------------------------------------------------------------------------------
			  Boyfriend - Best Coast
-------------------------------------------------------------------------------

Tuning: Standard

     INTRO: Guitar 1

   These are the chords used and the timing is really easy to figure out
e|-----------------------------|
B|-----------------------------|
G|-----------------------------|
D|- 10---   12-- --14----------|
A|- 10-x8- 12-x4--14-x4--------|
E|--8----  10----  12----------|

     INTRO: Guitar 2
e|-------------------------|
B|-------------------------|
G|-------------------------|   Do this four times along with Guitar 1
D|-------------------------|
A|---12h14-14-14-14-14-14--|
E|-------------------------|

           VERSE/CHORUS

e|-------------------------------|
B|-------------------------------|
G|-------------------------------|
D|- 10---   12--     14----------|
A|- 10-x8- 12-x4   14-x4---------|
E|--8----  10--     12-----------|
      "I wish he was my boyfriend..."

e|-------------------------|----------------------|
B|-------------------------|----------------------|
G|-------------------------|----------------------|
D|--5~--  5~-----3~---3~----|--5-5-5-5-5-5-5------|
A|--5~---5~-----3~---3~----|--5-5-5-5-5-5-5-------|
E|--3~---3~-----1~---1~----|--3-3-3-3-3-3-3-------|
  "There's nothing worse than..."            "...That I want him"

e|-------------------------------------------------------|
B|-------------------------------------------------------|
G|-------------------------------------------------------|
D|-------------------------------------------------------|   x2
A|--12h14-14-14-14-14-14-----14h12-12\10-10\12-12-12-----|
E|-------------------------------------------------------|

e|------------------------------------------------------------------------------|
B|------------------------------------------------------------------------------|
G|------------------------------------------------------------------12\14\16-16-|
D|------------12----12-----12h14-12---------------------------------------------|
A|--12h14-14-----14----14-----------14---------12h14-14-14-14-14-14-------------|
E|------------------------------------------------------------------------------|
Tap to rate this tab
 
# A B C D E F G H I J K L M N O P Q R S T U V W X Y Z