Song name
# A B C D E F G H I J K L M N O P Q R S T U V W X Y Z

Best Coast - Why I Cry tab

G x4

e|------------|------------|------------|------------|
B|------------|------------|------------|------------|
G|--4---------|--4---------|--13--------|--9------8--|
D|--5---------|--5---------|--14--------|--10-----9--|
A|--5---------|--5---------|--14--------|--10-----9--| 
E|--3---------|--3---------|--12--------|--8------7--| 

Look to the future, nothing's there // Don't know why I even care
Walk around in a haze, seems to be the way I spend my days, I'm stuck in the grey 
(x2 chord progressions)
Turn around and no one's there, don't know why I even care
Moods, they swing, the seasons change  //  Is it you or am I to blame, I always 
complain (x2 chord progressions)

G x4

e|------------|------------|------------|------------|
B|------------|------------|------------|------------|
G|--4---------|--13--------|--9---------|--6---------|
D|--5---------|--14--------|--10--------|--7---------|
A|--5---------|--14--------|--10--------|--7---------| 
E|--3---------|--12--------|--8---------|--5---------| 
'Cause you seem to think you know everything
Yeah, you seem to think you know everything
But you don't know why I cry  //  You don't know why I cry
You don't know why I cry  //  You don't know why I cry

e|------------|------------|------------|------------|
B|------------|------------|------------|------------|
G|--4---------|--4---------|--13--------|--9------8--|
D|--5---------|--5---------|--14--------|--10-----9--|
A|--5---------|--5---------|--14--------|--10-----9--| 
E|--3---------|--3---------|--12--------|--8------7--|  
Before I can stay inside, Oh, how fast the time goes by
Take a pill, spend the bills, seems to be the way I get my thrill  //  A never-
ending hill (x2 chord progressions)

G x4

e|------------|------------|------------|------------|
B|------------|------------|------------|------------|
G|--4---------|--13--------|--9---------|--6---------|
D|--5---------|--14--------|--10--------|--7---------|
A|--5---------|--14--------|--10--------|--7---------| 
E|--3---------|--12--------|--8---------|--5---------| 
'Cause you seem to think you know everything
Yeah, you seem to think you know everything
But you don't know why I cry  // You don't know why I cry
You don't know why I cry  //  You don't know why I cry  
You don't know why I cry  //  You don't know why I cry 
You don't know why I cry  //  You don't know why I cry, why I cry 
(finish on G)
Tap to rate this tab
 
# A B C D E F G H I J K L M N O P Q R S T U V W X Y Z