Song name
# A B C D E F G H I J K L M N O P Q R S T U V W X Y Z

Best Coast - Who Have I Become tab

I love Best Coast and loved their newest EP "Fade Away".
This is how to play "Who have I become".
Be sure to use a fuzzy sounding overdrive especially for the chorus.
Enjoy!

Standard tuning: EADGBe

(Intro/Outro)

e ------------------------------------------------------------------|
B ---12/10----10/7----7/5----5/3----3/5----5-5-5-5------------------|
G ------------------------------------------------------------------|
D ------------------------------------------------------------------|
A ------------------------------------------------------------------|
E ------------------------------------------------------------------|


e ------------------------------------------------------------------|
B ---12--12/10----10/7----7/5----5/3----3/5----5-5-5-5--------------|
G ------------------------------------------------------------------|  x3
D ------------------------------------------------------------------|
A ------------------------------------------------------------------|
E ------------------------------------------------------------------|

(Chorus) You can figure out the timing by listening to the song:

e ------------------------------------------------------------------|
B ------------------------------------------------------------------|
G ----7-------------------------------------------------------------|
D ----7-----------7-----------5-------------------------------------|
A ----5-----------7-----------5-------------------------------------|
E ----------------5-----------3-------------------------------------|
Tap to rate this tab
# A B C D E F G H I J K L M N O P Q R S T U V W X Y Z