Song name
# A B C D E F G H I J K L M N O P Q R S T U V W X Y Z

Best Coast - Fade Away tab

Capo 2nd fret

Intro
e|------------|------------|------------|------------|
B|------------|------------|------------|------------|
G|------------|------------|------------|------------|
D|--7---------|-----12-----|--7---------|--12--------|
A|--7---------|-----12-----|--7---------|--12--------|
E|--5---------|-----10-----|--5---------|--10--------| x1

Verses
e|------------|------------|------------|------------|
B|------------|------------|------------|------------|
G|------------|------------|------------|------------|
D|--7---------|-----12-----|--7---------|--12--------|
A|--7---------|-----12-----|--7---------|--12--------|
E|--5---------|-----10-----|--5---------|--10--------|
   People they change          And love, it fades
   My brain is gray          from all the things I take
   I want to sleep            But all I do is dream
   Sick of you being mean     I didn't do anything

chords x1 no lyrics

   My heart it melts          For those who weep
   Sick of you being mean     I didn't do anything

Chorus
e|------------|------------|------------|------------|
B|------------|------------|------------|------------|
G|------------|------------|------------|------------|
D|--14--------|--14--------|-----4------|--4---------|
A|--14--------|--14--------|-----4------|--4---------|
E|--12--------|--12--------|------------|------------|  
I could stay I could stay I could stay I could Stay
But it's best to go away, go away, go away Go away

e|------------|------------|------------|------------|
B|------------|------------|------------|------------|
G|------------|------------|------------|------------|
D|--7---------|---4--------|---7--------|--4---------|
A|--7---------|---4--------|---7--------|--4---------|
E|--5---------|------------|---5--------|------------| 
I won't change, I'll stay the same   I won't change, I'll stay the same
Darling fade away,             darling fade away

e|------------|------------|------------|------------|
B|------------|------------|------------|------------|
G|------------|------------|------------|------------|
D|--7---------|-----12-----|--7---------|--12--------|
A|--7---------|-----12-----|--7---------|--12--------|
E|--5---------|-----10-----|--5---------|--10--------|
  Sometimes I see             The person that's inside of me
  She's real She's mean       She doesn't say anything
  My heart can tell           What she screams and yells
  That inside she's cold      And she'll never grow old

Chorus
e|------------|------------|------------|------------|
B|------------|------------|------------|------------|
G|------------|------------|------------|------------|
D|--14--------|--14--------|-----4------|--4---------|
A|--14--------|--14--------|-----4------|--4---------|
E|--12--------|--12--------|------------|------------|  
I could stay I could stay I could stay I could Stay
But it's best to go away, go away, go away Go away

e|------------|------------|------------|------------|
B|------------|------------|------------|------------|
G|------------|------------|------------|------------|
D|--7---------|---4--------|---7--------|--4---------|
A|--7---------|---4--------|---7--------|--4---------|
E|--5---------|------------|---5--------|------------| 
I won't change, I'll stay the same   I won't change, I'll stay the same
Darling fade away,             darling fade away

Outro
e|------------|------------|------------|------------|
B|------------|------------|------------|------------|
G|------------|------------|------------|------------|
D|--14--------|----14------|--12--------|--9-----7---|
A|--14--------|----14------|--12--------|--9-----7---|
E|--12--------|----12------|--10--------|--7-----5---|  x2

e|------------|------------|------------|------------|
B|------------|------------|------------|------------|
G|------------|------------|------------|------------|
D|--7---------|---7--------|--9---------|--11--------|
A|--7---------|---7--------|--9---------|--11--------|
E|--5---------|---5--------|--7---------|---9--------| x2
 aaaaaaahh
  aaahhhhh

e|------------|------------|------------|------------|
B|------------|------------|------------|------------|
G|------------|------------|------------|------------|
D|--7---------|-----12-----|--7---------|--12--------|
A|--7---------|-----12-----|--7---------|--12--------|
E|--5---------|-----10-----|--5---------|--10--------|
    My heart it melts          For those who weep
    Sick of you being mean     I didn't do anything
Tap to rate this tab
 
# A B C D E F G H I J K L M N O P Q R S T U V W X Y Z