Song name
# A B C D E F G H I J K L M N O P Q R S T U V W X Y Z

Best Interest - Read My Lips tab

Read My Lips Intro


e--7------------------|
b---5-5-0-7-0-9-5-----|
g---------------------| X 9
d---------------------|
a---------------------|
e---------------------|

e--7-------------------------7-----|
b---5-5-0-7-0--------5-0-9-5-------|
g----------------------------------| X 1
d----------------------------------|
a--------------9-9-9---------------|
e--------------7-7-7---------------|
               . . .

e--7-0-0-0-0---------------------7-0-0-0-0-----5-5-4-4-2-2-0-0-----|
b------------0-0-7-0-0-0-9-0-5-5-----------0-0---------------------|
g------------------------------------------------------------------| X 3
d------------------------------------------------------------------|
a------------------------------------------------------------------|
e------------------------------------------------------------------|

e--7-0-0-0-0-------------------------|
b------------0-0-7-0-0-0-9-0-5-5-----|
g------------------------------------| X 1
d------------------------------------|
a------------------------------------|
e------------------------------------|

e--7-0-0-0-0---------------------7-0-0-0-0-----5-5-4-4-2-2-0-0-----|
b------------0-0-7-0-0-0-9-0-5-5-----------0-0---------------------|
g------------------------------------------------------------------| X 3
d------------------------------------------------------------------|
a------------------------------------------------------------------|
e------------------------------------------------------------------|
   . . . . . . . . . . . . . . . . . . . . . . . . . . . . . .

e--7-0-0-0-0---------------------5-4-0-2-4-2-----|
b------------0-0-7-0-0-0-9-0-5-5-----------------|
g------------------------------------------------| X 1
d------------------------------------------------|
a------------------------------------------------|
e------------------------------------------------|
   . . . . . . . . . . . . . . . 

http://profile.myspace.com/bestinterest
Tap to rate this tab
# A B C D E F G H I J K L M N O P Q R S T U V W X Y Z