Song name
# A B C D E F G H I J K L M N O P Q R S T U V W X Y Z

Beta Band - Its Not Too Beautiful tab

ITS NOT TOO BEAUTIFUL
THE BETA BAND
THE BETA BAND LP

NORMAL TUNINGINTRO
=====
This section has a lot of right hand damping.

  D5(muted)         Am       C         Em
|--------------------------------------------------|
|-3-3-3-3-3-3-3-3---1-1-1-1--1---------------------|
|-2-2-2-2-2-2-2-2---2-2-2-2--0--0--0---0~----------|
|-0-0-0-0-0-0-0-0---2-2-2-2--2--2--2---2~----------|
|----------------------------3--3--3---2~----------|
|--------------------------------------0~----------|


  D5       C      Em
|----2-----------------|
|-3--3-----------------|
|-2--2--2------0--0~---|
|-0--0--0----2----2~---|
|----------3------2~---|
|-----------------0~---|


ORCHESTRA SAMPLE
================

|-8-6--8--6-8-6-8-8-8-8---------13-12-11-10-------------------
|--------------------------6-8--------------------------------
|-------------------------------------------------------------
|-------------------------------------------------------------
|-------------------------------------------------------------
|-------------------------------------------------------------
Tap to rate this tab
 
# A B C D E F G H I J K L M N O P Q R S T U V W X Y Z