Song name
# A B C D E F G H I J K L M N O P Q R S T U V W X Y Z

Beta Band - Broken Up A Ding Dong tab

-------------------------------------------------------------------------------
                 BROKEN UP A DING DONG - The Beta Band
-------------------------------------------------------------------------------
As no one yet tabbed it, I decided to do it. Altough it's my first try ever on tabbing 
I think it's quite accurate (it's a bloody simple song)
For corrections, or thanks, or whatever: erik.nmgn [at] gmail.com

Standard tuning (EADGBe)
the easy riff all along is:
    (E)               (A)
e|-------------------------------|
B|---------------------2--0------|
G|--1-----------------------2----|
D|--2--2--2--2--2--2-------------|
A|--2----------------------------|
E|--0----------------------------|

the second guitar does something like this
  (E)                 (A)      (F)
e|--------------------------0------|
B|--0--0--0--0--0--0---2----0---1--|
G|--1--1--1--1--1--1---2----0---2--|
D|--2--2--2--2--2--2---2--------3--|
A|--2--2--2--2--2--2---0--------3--|
E|--0--0--0--0--0--0---0-----------|

(I know the F isn't what they're playing, but it comes close to)

In chords
E(022100) and
A(x02220) will do

E                                                A
Falling down the road in the middle of the light
E                                  A
That don't mean its gonna be alright
E                                                A
Falling down the road in the middle of the light

etcetera!

Good luck, it's a great track!
Tap to rate this tab
# A B C D E F G H I J K L M N O P Q R S T U V W X Y Z