Song name
# A B C D E F G H I J K L M N O P Q R S T U V W X Y Z

Beth Orton - Ooh Child tab

-----------------------------------------------------------------------------
                   Ooh, Child (Alternate Version) – Beth Orton
-----------------------------------------------------------------------------
Tabbed by: Bob Miller
E-mail: onefinebob at gmail dot com

Tuning: Normal, with CAPO III

This is a beautiful version of the song. Some of the tabs out there are 
a good start, but here is one more true to the recording. Lyrics are at 
the end. Enjoy!

CHORUS:
e|--0-----0-----0-|--0-----0-----0-|--0-----0-----0-|--0-----0-----0-|
B|----0-----0-----|----0-----0-----|----0-----0-----|----0-----0-----|
G|6-----6-----6---|4-----4-----4---|2-----2-----2---|2-----2-----2---| 3x
D|----------------|----------------|----------------|----------------|
A|----------------|----------------|----------------|----------------|
E|----------------|----------------|----------------|----------------|

e|--0-----0-----0-|--0-----0-----0-|--0-----0-----0-|--0-------------|
B|----0-----0-----|----0-----0-----|----0-----0-----|----0---0-----1-|
G|6-----6-----6---|4-----4-----4---|2-----2-----2---|2-----2---0-----|
D|----------------|----------------|----------------|------------0h2-|
A|----------------|----------------|----------------|----------------|
E|----------------|----------------|----------------|----------------|

VERSE 1:
e|------0---------|----------------|----------------|----------------|
B|--1-----1-----0-|--1-----1-----1-|--1-----1-----1-|--1-----1-----1-|
G|----0-----0-----|----0-----0-----|----2-----2-----|----2-----2-----|
D|------------2---|------0-----0---|------2-----2---|------2-----2---|
A|3---------------|2---------------|0---------------|0---------------|
E|----------------|----------------|----------------|----------------|

e|-----------------|----------------|----------------|----------------|
B|--1------1-----1-|--1-----1-----1-|--1-----1-----1-|--1-----1-----1-|
G|----0------0-----|----0-----0-----|----2-----2-----|----2-----2-----| 2x
D|------0h2----2---|------2-----2---|------2-----2---|------2-----2---|
A|3----------------|2---------------|0---------------|0---------------|
E|-----------------|----------------|----------------|----------------|

e|-----------------|----------------|----------------|----------------|
B|--1------1-----1-|--1-----1-----1-|--1-----1-----1-|----1-----1---1-|
G|----0------0-----|----0-----0-----|----2-----2-----|2-----2-----2---|
D|------0h2----2---|------2-----2---|------2-----2---|--2-----2-------|
A|3----------------|2---------------|0---------------|----------------|
E|-----------------|----------------|----------------|----------------|

e|----------------|
B|--1-------------|
G|2---2-----------|
D|------2-p0------|
A|----------------|
E|----------------|

INTERLUDE A:
e|------0---------|------0---------|------0-----0---|--0-----0-------|
B|--0---------0---|--0---------0---|--0-----0-----0-|----0-----0-----|
G|----6-----6---0h|4---4-----4---0h|2---2-----2-----|2-----2-----2---|
D|0---------------|0---------------|0---------------|----------------|
A|----------------|----------------|----------------|----------------|
E|----------------|----------------|----------------|----------------|

e|--0-----0-----0-|--0-----0-----0-|--0-----0-----0-|--0-----0-----0-|
B|----0-----0-----|----0-----0-----|----0-----0-----|----0-----0-----|
G|6-----6-----6---|4-----4-----4---|2-----2-----2---|2-----2-----2---| 
D|----------------|----------------|----------------|----------------|
A|----------------|----------------|----------------|----------------|
E|----------------|----------------|----------------|----------------|

CHORUS:
e|--0-----0-----0-|--0-----0-----0-|--0-----0-----0-|--0-----0-----0-|
B|----0-----0-----|----0-----0-----|----0-----0-----|----0-----0-----|
G|6-----6-----6---|4-----4-----4---|2-----2-----2---|2-----2-----2---| 3X
D|----------------|----------------|----------------|----------------|
A|----------------|----------------|----------------|----------------|
E|----------------|----------------|----------------|----------------|

e|--0-----0-----0-|--0-----0-----0-|--0-----0-----0-|--0-------------|
B|----0-----0-----|----0-----0-----|----0-----0-----|----0---0-----1-|
G|6-----6-----6---|4-----4-----4---|2-----2-----2---|2-----2---0-----|
D|----------------|----------------|----------------|------------0h2-|
A|----------------|----------------|----------------|----------------|
E|----------------|----------------|----------------|----------------|

VERSE 2 & 3:
e|------0---------|----------------|----------------|----------------|
B|--1-----1-----1-|--1-----1-----1-|--1-----1-----1-|--1-----1-----1-|
G|----0-----0-----|----0-----0-----|----2-----2-----|----2-----2-----|
D|------------2---|------2-----2---|------2-----2---|------2-----2---|
A|3---------------|2---------------|0---------------|0---------------|
E|----------------|----------------|----------------|----------------|

e|-----------------|----------------|------0---------|------0---------|
B|--1------1-----1-|--1-----1-----1-|--1-----1---1---|--1-----1---1---|
G|----0------0-----|----0-----0-----|----2-----2---2-|----2-----2---0-| 
D|------0h2----2---|------2-----2---|----------------|----------------|
A|3----------------|2---------------|0---------------|0---------------|
E|-----------------|----------------|----------------|----------------|

e|-----------------|----------------|----------------|------0---------|
B|--1------1-----1-|--1-----1-----1-|--1-----1-----1-|--1-----1---1---|
G|----0------0-----|----0-----0-----|----2-----2-----|----2-----2---0-| 
D|------0h2----2---|------2-----2---|------2-----2---|----------------|
A|3----------------|2---------------|0---------------|0---------------|
E|-----------------|----------------|----------------|----------------|

e|-----------------|----------------|----------------|----------------|
B|--1------1-----1-|--1-----1-----1-|--1-----1-----1-|--1-----1-----1-|
G|----0------0-----|----0-----0-----|----2-----2-----|----2-----2-----| 5x
D|------0h2----2---|------2-----2---|------2-----2---|------2-----2---|
A|3----------------|2---------------|0---------------|0---------------|
E|-----------------|----------------|----------------|----------------|

e|-----------------|----------------|----------------|----------------|
B|--1------1-----1-|--1-----1-----1-|----1-----1-----|1---1-----1-----|
G|----0------0-----|----0-----0-----|------2-----2---|--2---2-----2---| 
D|------0h2----2---|------2-----2---|-h2-----2-----2-|--------2-----2-|
A|3----------------|2---------------|0---------------|----------------|
E|-----------------|----------------|----------------|----------------|

e|----------------|----------------|----------------|----------------|
B|------1-----1---|------1-----1---|------1-----1---|--1-----1-------|
G|----0---0-----0-|----0---0-----0-|----2---2-----2-|----2-----2-----| 
D|--2-------2-----|--2-------2-----|--2-------2-----|2-----2-----2h0-|
A|3---------------|2---------------|0---------------|----------------|
E|----------------|----------------|----------------|----------------|

INTERLUDE B:
e|------0-------0-|--0-----0-----0-|--0-----0-----0-|----0-----0-----|
B|--0---------0---|----0-----0-----|----0-----0-----|0-----0-----0---|
G|6---6-----6-----|4-----4-----4---|2-----2-----2---|--2-----2-----0-|   
D|----------------|----------------|----------------|----------------|
A|----------------|----------------|----------------|----------------|
E|----------------|----------------|----------------|----------------|

e|--0-----0-----0-|--0-----0-----0-|--0-----0-----0-|--0-----0-----0-|
B|----0-----0-----|----0-----0-----|----0-----0-----|0---0-----0-----|
G|6-----6-----6---|4-----4-----4---|2-----2-----2---|------2-----2---|   
D|----------------|----------------|----------------|----------------|
A|----------------|----------------|----------------|----------------|
E|----------------|----------------|----------------|----------------|

CHORUS:
e|--0-----0-----0-|--0-----0-----0-|--0-----0-----0-|--0-----0-----0-|
B|----0-----0-----|----0-----0-----|----0-----0-----|----0-----0-----|
G|6-----6-----6---|4-----4-----4---|2-----2-----2---|2-----2-----2---| 3x
D|----------------|----------------|----------------|----------------|
A|----------------|----------------|----------------|----------------|
E|----------------|----------------|----------------|----------------|

e|--0-----0-----0-|--0-----0-----0-|--0-----0-----0-|----0-----0-----|0-----|
B|----0-----0-----|----0-----0-----|----0-----0-----|0-----0-----0---|--0---|
G|6-----6-----6---|4-----4-----4---|2-----2-----2---|--2-----2-----2-|----2-|
D|----------------|----------------|----------------|----------------|------|
A|----------------|----------------|----------------|----------------|------|
E|----------------|----------------|----------------|----------------|------|

Lyrics:

CHORUS:
Ooh, child, things are gonna get easier. Ooh, child things’ll be brighter
Ooh, child, things are gonna get easier. Ooh, child things’ll be brighter

VERSE 1:
Someday, yeah, we’ll put it together and we’ll get it undone
Someday when your head is much lighter
Someday, yeah, we’ll walk in the rays of a beautiful sun
Someday when the world is much brighter

INTERLUDE A

CHORUS:
Ooh ,child, things are gonna get easier Ooh, child, things’ll be brighter
Ooh ,child, things are gonna get easier Ooh,ah, things’ll be brighter

VERSE 2 & 3:
Someday yeah we’ll put it together and we’ll get it undone
Someday when your hedai smuch lighter
Someday, yeah, we’ll walk in the rays of a baugiful sun
Somedya when the world is much brighter ah
Right now, right now, right
Now, ow, right now
Well you just wait and see 
How things are gonna be yeah
You just wait and see
How things are gonna be yeah
You just wait and see how thigns are gonna be....

INTERLUDE B

CHORUS:
Ooh, child, things are gonna get easier. Ooh, child, things’ll be brighter
Ooh, child, things are gonna get easier. Ooh, things’ll be brighter

| h  hammer-on
| p  pull-off
=============================================================================






Tap to rate this tab
# A B C D E F G H I J K L M N O P Q R S T U V W X Y Z