Song name
# A B C D E F G H I J K L M N O P Q R S T U V W X Y Z

Beth Orton - Mystery tab

                                          Artist - Beth Orton
                                         *********************
                                            Song - Mystery
                                           ****************
                                       Album -  Sugaring Season
                                      **************************
                                         Tabbed By - Ayreon77
                                        **********************


just reapeat this pattern throughout the whole song.

 E
[-----------------|-----------------]
[---------0-------|---------0-------]
[-----1-2---2-1-2-|-----2-1---2-1-2-]
[-----------------|-----------------]
[---2-------------|---2-------------]
[-0---------------|-0---------------]

--------------------------------
VERSE 1
********
Come and sing a song
Something that belongs here
Come and calm your soul
Mystery is born here

--------------------------------
CHORUS
*******
Alive, alive, alive, alive
Alive, alive, alive, alive-o
Alive-o

--------------------------------
VERSE 2
********
Come and rest your bones
You look awful tired
Fall soft upon the thought
Mystery is born

--------------------------------
CHORUS
*******
Alive, alive, alive, alive
Alive, alive, alive, alive-o
Alive-o

--------------------------------
BRIDGE
*******
And a good day is nothing that we thought
Finding out brings nothing that we sought
Oh please donít stand a mood apart
You donít need to break your heart

One day will teach us all a year will never know

--------------------------------
CHORUS
*******
Alive, alive, alive, alive
Alive, alive, alive, alive-o
Alive-o


A simple tune to pick.

Enjoy......
Tap to rate this tab
 
# A B C D E F G H I J K L M N O P Q R S T U V W X Y Z