Song name
# A B C D E F G H I J K L M N O P Q R S T U V W X Y Z

Bethel Live - Be Lifted High chords

Highlighted       Show chord diagrams
Be lifted high by Bethel Church

Tabbed by: Jan-David Antonsen

Youtube link: http://www.youtube.com/watch?v=1090DWL3zUc

Cm - Gm - Eb - Bb
Be lifted high
Be lifted high
For your glory be lifted high

Gm - Ab - Eb - Bb - F - G - Eb - Bb
You're the king of all the ages
You're the author of salvation
You're the reason why we're living for your glory
Lord release the sound of heaven
Let it rise in every nation
We will join the anthem singing for your glory

Gm - Ab - Eb - Bb - F - G - Eb - Bb
You're the everlasting father
You're the everlasting fire
You're the reason why we're living for your glory
We will be the generation
Calling down the reign of heaven
We will join the anthem singing for your glory

Cm - Gm - Eb - Bb
We give you the highest praise
We're calling on Your holy name
We give you the highest praise
We're calling on Your glorious name

SOLO
E |-------------------------|-------------------------|
H |---13-13//15-15----------|---13-14//15-15----------|
G |----------------15x3-15x3|----------------15x3-15x3|
D |-------------------------|-------------------------|
A |-------------------------|-------------------------|
E |-------------------------|-------------------------|

E |-------------------------|-------------------------|
H |---13-13//15-15----------|-------------------------|
G |----------------15x3-15x3|--14x3-14x3-14x3 14x3----|
D |-------------------------|-------------------------|
A |-------------------------|-------------------------|
E |-------------------------|-------------------------|

E |-------------------------|--------13-13------------|
H |---13-13//15-15----------|--13-13-------15x3-15x3--|
G |----------------15x3-15x3|-------------------------|
D |-------------------------|-------------------------|
A |-------------------------|-------------------------|
E |-------------------------|-------------------------|

E |-------------------------|-------------------------|
H |---13-13//15-15----------|-------------------------|
G |----------------15x3-15x3|--14x3-14x3-14x3-14x-3---|
D |-------------------------|-------------------------|
A |-------------------------|-------------------------|
E |-------------------------|-------------------------|

Questions or qorrections: Jandavid@gmail.com
Tap to rate this tab
 
# A B C D E F G H I J K L M N O P Q R S T U V W X Y Z