Song name
# A B C D E F G H I J K L M N O P Q R S T U V W X Y Z

Bethel Live - You Are Good tab

INTRO/INSTRUMENTAL

e-------------------------------------------14-14-14-14-|
B-14-14-14-14-14-14-14-14----------17-17-17-------------|
G-------------------------16-16-16----------------------|
D-------------------------------------------------------|
A-------------------------------------------------------|
E-------------------------------------------------------|

e-------------------------------------------------------|
B----------------------------17-17-17-14-14-14----------|
G-------------------14-14-14----------------------------|
D-16-16-16-16-16-16-------------------------------------|
A-------------------------------------------------------|
E-------------------------------------------------------| (x3)

e-------------------------------------------14-14-14-14-|
B-14-14-14-14-14-14-14-14----------17-17-17-------------|
G-------------------------16-16-16----------------------|
D-------------------------------------------------------|
A-------------------------------------------------------|
E-------------------------------------------------------|

e-------------------------------------------------------|
B-------------------------------------------------------|
G-------------------14----------------------------------|
D-16-16-16-16-16-16-------------------------------------|
A-------------------------------------------------------|
E-------------------------------------------------------|




CHORUS

e-------------------------------------------------------|
B-14-14-14-14-14-14-14-14-14-14-14-14-14-14-14-14-------|
G-------------------------------------------------------|
D-------------------------------------------------------|
A-------------------------------------------------------|
E-------------------------------------------------------|

e-------------------------------------------14-14-14-14-|
B-14-14-14-14-14-14-14-14----------17-17-17-------------|
G-------------------------16-16-16----------------------|
D-------------------------------------------------------|
A-------------------------------------------------------|
E-------------------------------------------------------|

e-------------------------------------------------------|
B-------------------------------------------------------|
G-------------------------------------------------------|
D-16-16-16-16-16-16-16-16-16-16-16-16-16-16-16-16-------|
A-------------------------------------------------------|
E-------------------------------------------------------|

e-------------------------------------------------------|
B----------17-17-17-14-14-14----------------------------|
G-14-14-14----------------------------------------------|
D-------------------------------------------------------|
A-------------------------------------------------------|
E-------------------------------------------------------|
Tap to rate this tab
# A B C D E F G H I J K L M N O P Q R S T U V W X Y Z