Song name
# A B C D E F G H I J K L M N O P Q R S T U V W X Y Z

Bethel Live - This Is What You Do tab

Key of A:

Guitar 1:

e-----------------------------------------------------------|
B-----------------------------------------------------------|
G--------0-------2-0----------0---4-0-----0-----------------|
D-----0-----0--0-----------4----4-----0h4---6---------------|
A--2---------3--------3/5-----------------------------------|
E-----------------------------------------------------------|



Guitar 2:

e-----------------------------------------------------------|
B---8--10-----------8----------8--10----------8-------------|
G---------9---7--7----9--------------9---7-7-----9--7-------|
D-----------------------------------------------------------|
A-----------------------------------------------------------|
E-----------------------------------------------------------|
Tap to rate this tab
# A B C D E F G H I J K L M N O P Q R S T U V W X Y Z