Song name
# A B C D E F G H I J K L M N O P Q R S T U V W X Y Z

Bethel Music - This Is Amazing Grace tab

---------------------------------------------------------------------
               THIS IS AMAZING GRACE - Bethel Music
---------------------------------------------------------------------
Chorus: 
e|-----12----12----12----12-----12----12----12----12----------|
B|--13----13----13----13-----13----13----13----13-------------|
G|------------------------------------------------------------|
D|------------------------------------------------------------|
A|------------------------------------------------------------|
E|------------------------------------------------------------|

e|-----12----12----12----12-----15----15----15----15----------|
B|--13----13----13----13-----12----12----12----12-------------|
G|------------------------------------------------------------|
D|------------------------------------------------------------|
A|------------------------------------------------------------|
E|------------------------------------------------------------|

e|-----12----12----12----12-----12----12----12----12----------|
B|--13----13----13----13-----13----13----13----13-------------|
G|------------------------------------------------------------|
D|------------------------------------------------------------|
A|------------------------------------------------------------|
E|------------------------------------------------------------|

e|-----12----12----15-----------------------------------------|
B|--13----13----12--------------------------------------------|
G|------------------------------------------------------------|
D|------------------------------------------------------------|
A|------------------------------------------------------------|
E|------------------------------------------------------------|

Before Verse 2:
e|--------------------------5---------------------------------|
B|--5-5---5--5---5------5-8----5-5---5--5---5-----5-8--5------|
G|------7------7----5-7------------7------7---5-7---------5---|
D|------------------------------------------------------------|
A|------------------------------------------------------------|
E|------------------------------------------------------------|


Instrumental Before Bridge (And later during Chorus):

e|----------------------------------15-17---------------------|
B|--17-17-15-17--17-15-17-----15-17---------------------------|
G|-------------------------17---------------------------------|
D|------------------------------------------------------------|
A|------------------------------------------------------------|
E|------------------------------------------------------------|


e|-------------------------------------15---------------------|
B|--17-17-15-17--17-15-17-----15-17-18------------------------|
G|-------------------------17---------------------------------|
D|------------------------------------------------------------|
A|------------------------------------------------------------|
E|------------------------------------------------------------|

e|----------------------------------15-17---------------------|
B|--17-17-15-17--17-15-17-----15-17---------------------------|
G|-------------------------17---------------------------------|
D|------------------------------------------------------------|
A|------------------------------------------------------------|
E|------------------------------------------------------------|


e|-------------------------------------15---------------------|
B|--17-17-15-17--17-15-17-----15-17-18----17------------------|
G|-------------------------17---------------------------------|
D|------------------------------------------------------------|
A|------------------------------------------------------------|
E|------------------------------------------------------------|


The early Chorus part might be played down an octave from what I've tabbed and 
played with a micro POG or Whammy creating the octave up effect.
Tap to rate this tab
 
# A B C D E F G H I J K L M N O P Q R S T U V W X Y Z