Song name
# A B C D E F G H I J K L M N O P Q R S T U V W X Y Z

Bethesda Softworks - Morrowind Theme tab

e|-------|-------2|-2--5---|-----------|
B|0--2--3|-3--5---|-------5|-5--3--2--0|
G|-------|--------|--------|-----------|
D|-------|--------|--------|-----------|
A|-------|--------|--------|-----------|
E|-------|--------|--------|-----------|

e|-------|-------2|-2--5--7|-5--9--7-----|
B|0--2--3|-3--5---|--------|-------------|
G|-------|--------|--------|-------------|
D|-------|--------|--------|-------------|
A|-------|--------|--------|-------------|
E|-------|--------|--------|-------------|

e|-7--9--10-9-7-5-3-2--|----2---|-------------|
B|--------------------5|-3-----5|-5--3--2--0--|
G|---------------------|--------|-------------|
D|---------------------|--------|-------------|
A|---------------------|--------|-------------|
E|---------------------|--------|-------------|
Tap to rate this tab
# A B C D E F G H I J K L M N O P Q R S T U V W X Y Z