Song name
# A B C D E F G H I J K L M N O P Q R S T U V W X Y Z

Bethlehem - Knochenkorn tab

Artist: Bethlehem
Tuning: Drop C


Intro:

d|---------------------------|
a|---------------------------|
f|---------------------------|
C|-0-0-0-000-00-0-0-00-1-1~--| x5
G|-0-0-0-000-00-0-0-00-1-1~--|
C|---------------------------|
PM . . . ... .. . . .. .

d|----------------------|
a|----------------------|
f|----------------------|
C|-0-0-0-000-00-0-0-00--|
G|-0-0-0-000-00-0-0-00--|
C|----------------------|
PM . . . ... .. . . ..


Riff 1:

d|---------------------------|
a|---------------------------|
f|---------------------------|
C|-0-0-0-000-00-0-0-00-1-1~--|  3x
G|-0-0-0-000-00-0-0-00-1-1~--|
C|-0-0-0-000-00-0-0-00-1-1~--|
PM . . . ... .. . . .. .

d|----------------------|
a|----------------------|
f|----------------------|
C|-0-0-0-000-00-0-0-00--|
G|-0-0-0-000-00-0-0-00--|
C|-0-0-0-000-00-0-0-00--|
PM . . . ... .. . . ..


Chorus:

d|---------------------------------|
a|---------------------------------|
f|--------------7--7-777-55555-----|
C|-5--5-5-88888-7--7-777-55555-----|
G|-5--5-5-88888-5--5-555-33333333--|
C|-5--5-5-88888-0--0-000------333--|


Repeat Intro   1x

Repeat Riff 1  1x


Chorus (2)

d|---------------------------------|
a|---------------------------------|
f|-----------------------55555-----|
C|-5--5-5-88888-0--0-000-55555-----|
G|-5--5-5-88888-0--0-000-33333333--|
C|-5--5-5-88888-0--0-000------333--|

d|---------------------------------|
a|---------------------------------|
f|--------------7--7-777-55555-----|
C|-5--5-5-88888-7--7-777-55555-----|
G|-5--5-5-88888-5--5-555-33333333--|
C|-5--5-5-88888-0--0-000------333--|


Repeat Intro   1x

Repeat Riff 1  1x

Repeat Chorus(2)  2x

Repeat Intro   1x

Repeat Riff 1  1x

Repeat Chorus(2)  2x


End with:


d|------|
a|------|
f|------|
C|-0000-|
G|-0000-|
C|-0000-|
PM ....
Tap to rate this tab
# A B C D E F G H I J K L M N O P Q R S T U V W X Y Z