Song name
# A B C D E F G H I J K L M N O P Q R S T U V W X Y Z

Beto Vazquez Infinity - Promises Under The Rain tab

Beto Vasquez Infinity - Promises Under The Rain (solo)
Based on video cover by diobelek76 http://www.youtube.com/watch?v=AyfVQtshV9I

Something I could see, something was guessed

e|-------------------------------------|
B|---9h11-11b(13r11)-------------------|
G|-----------------------4-5-4-4~------|
D|-------------------------------------|
A|-------------------------------------|
E|-------------------------------------|

e|--------------------------------------------------------------|
B|----------------6--5*---6-5---5/8~-----8-10--10b(12r10)--10---|
G|--4-(4-4)-5--7--------------7--------9------------------------|
D|--------------------------------------------------------------|
A|--------------------------------------------------------------|
E|--------------------------------------------------------------|

e|--------------------14-14-12-10-------------------16b(18)-18b(20)--|
B|--10--12-12---13-13----------------13-12*---13-15------------------|
G|-------------------------------------------------------------------|
D|-------------------------------------------------------------------|
A|-------------------------------------------------------------------|
E|-------------------------------------------------------------------|

e|---------------------------------------------------|
B|--13-12-13----13-12-13-----13-12--13---------------|
G|-----------14----------13--------------10\9-10-----|
D|---------------------------------------------------|
A|---------------------------------------------------|
E|---------------------------------------------------|

e|----------------------------------------------------|
B|--15-13-15-----15-13-15-----15-13-15------------13--|
G|------------16----------14-------------12\10-12-----|
D|----------------------------------------------------|
A|----------------------------------------------------|
E|----------------------------------------------------|

e|------------------------------------------|
B|----12-13-13b(14)-13b(14)-13-12-10-8-10---|
G|------------------------------------------|
D|------------------------------------------|
A|------------------------------------------|
E|------------------------------------------|

e|--------------------------------------------------------|
B|--18-17-18----18-16-18--19b(20)-18--18s15--15--13--13---|
G|-----------19-------------------------------------------|
D|--------------------------------------------------------|
A|--------------------------------------------------------|
E|--------------------------------------------------------|

e|--19b-------21b(22)-19--18h19--19b---|
B|-------------------------------------|
G|-------------------------------------|
D|-------------------------------------|
A|-------------------------------------|
E|-------------------------------------|


***
(It seems the guitar on the video has half-step down tuning, so I shifted notes 
half-step down for standard tuning)
Tap to rate this tab
 
# A B C D E F G H I J K L M N O P Q R S T U V W X Y Z