Song name
# A B C D E F G H I J K L M N O P Q R S T U V W X Y Z

Better Luck Next Time - Tomorrow Maybe tab

-----------------------------------------------------------------------------
			     Tomorrow, Maybe - Better Luck Next Time
-----------------------------------------------------------------------------
Tabbed by:  Evan
Email:  masterofbattery20@live.com

This is my first tab if you have any questions contact me at www.youtube.com/cococrisp20 
my e-mail,
I hardly ever check that account.  Great song, great band enjoy!

Tuning:STANDARD

Intro:2x
e|---------------------------------------------------------------------------|
B|---------------------------------------------------------------------------|
G|-10--10--10--10--10--10--10--10--10--10--10--10--14---14---12---12---------|
D|---------------------------------------------------------------------------|
A|---8---8---8---8---8---8---8---8---8---8---8---8---12---12---10---10-------|
E|---------------------------------------------------------------------------|

Riff 1:4X
e|---------------------------------------------------------------------------|
B|---------------------------------------------------------------------------|
G|-10-----------14----12-----------------------------------------------------|
D|-X-----10-----X-----X------------------------------------------------------|
A|-8-----X------12----10-----------------------------------------------------|
E|-------8-------------------------------------------------------------------|
   X8    X4     X3    X3

   1+2      1+2     Let Ring         1+2      1+2     Let Ring     Let Ring
e|----------------------------------|----------------------------------------|
B|----------------------------------|----------------------------------------|
G|-10-10----10-10---10-------14---12|10-10----10-10---10-----------10--------|
D|-X--X-----X--X----X--------X----X-|X--X-----X--X----X------------X---------|
A|-8--8-----8--8----8--------12---10|8--8-----8--8----8------------8---------|
E|----------------------------------|----------------------------------------|
                             X3   X3

Verse 1:2X (8th notes)...The story starts like any other...
e|---------------------------------------------------------------------------|
B|---------------------------------------------------------------------------|
G|---------------------------------------------------------------------------|
D|10-------------------------------------------------------------------------|
A|8-----10-----10-----8------------------------------------------------------|
E|------8------12-----6------------------------------------------------------|
  X16PM   X16PM    X16    X16

Chorus:2X (8th notes)...We will make it through...
e|---------------------------------------------------------------------------|
B|---------------------------------------------------------------------------|
G|---------------------------------------------------------------------------|
D|10-------------------------------------------------------------------------|
A|8---10---8---10------------------------------------------------------------|
E|----8----6---8-------------------------------------------------------------|
  X8  X8   X8  X8


   1+2      1+2     Let Ring         1+2      1+2     Let Ring     Let Ring
e|----------------------------------|----------------------------------------|
B|----------------------------------|----------------------------------------|
G|-10-10----10-10---10-------14---12|10-10----10-10---10-----------10--------|
D|-X--X-----X--X----X--------X----X-|X--X-----X--X----X------------X---------|
A|-8--8-----8--8----8--------12---10|8--8-----8--8----8------------8---------|
E|----------------------------------|----------------------------------------|
                             X3   X3

Verse
Chorus
Second part of Riff 1 (the last thing I just wrote with the 10 octaves)
                                                            X
                                                            8
For the bridge use the chorus riff
Piano break (no guitar)
Chorus
Keep repeating Riff 1 till the end

| /  slide up
| \  slide down
| h  hammer-on
| p  pull-off
| ~  vibrato
| +  harmonic
| x  Mute note
PM Palm mute
=============================================================================
Tap to rate this tab
# A B C D E F G H I J K L M N O P Q R S T U V W X Y Z