Song name
# A B C D E F G H I J K L M N O P Q R S T U V W X Y Z

Better Than Ezra - Desperately Wanting tab

-----------------------------------------------------------------------------
            "Desperately Wanting" - Better That Ezra
----------------------------------------------------------------------------
Tabbed by: Ted_Zebbetin
Email:dabarnes@sewanee.edu

Tuning:Standard

Verse Riff A (2x)    Verse Riff B (3x)
    F  Am     G        F  Am     G
e|--1---------3---| |--1---------3-----------------|
B|--1--0h1p0--3---| |--1--0h1p0--3-----------------|
G|--2--2------0---| |--2--2------0-----------------|
D|--3--2------0---| |--3--2------0------0----------|
A|-----0------2---| |-----0------2---0h2-----------|
E|------------3---| |------------3--3--------------|

Chorus Riff A (2x)
   F  Am   G   Csus2
e|-1---0---3---3--------------|
B|-1---1---3---3--------------|
G|-2---2---0---0--------------|
D|-3---2---0---2--------------|
A|-3---0---2---3--------------|
E|-1-------3------------------|

Verse Riff B (5x)
Verse Riff A w/ distortion (4x)

Chorus Riff B w/ distortion (4x)
   F     Am       G    Csus
e|-1-1---0-0-0---3-3-------------------------|
B|-1-1---1-1-1---3-3---3-3-------------------|
G|-2-2---2-2-2---0-0---0-0-------------------|
D|-3-3---2-2-2---0-0---2-2-------------------|
A|-3-3---0-0-0---2-2---3-3-------------------|
E|-1-1-----------3-3-------------------------|

Verse Riff B (5x)
Verse Riff A w/ distortion (4x)
Chorus B w/ distortion (4x)

Bridge Riff A w/ distortion (5x)  Riff B w/ distortion (1x)
     D     Csus   G                    C
e|-2-2-2---------3-3--------|     |------------|
B|-3-3-3---3-3---3-3--------|     |------------|
G|-2-2-2---0-0---0-0--------|     |--5-5-5-----|
D|-0-0-0---2-2---0-0--------|     |--5-5-5-----|
A|---------3-3---2-2--------|     |--3-3-3-----|
E|---------------3-3--------|     |------------|

Bridge Riff C w/ slight overdrive (4x)
                     
e|-----------------------------------|
B|-----------------------------------|
G|-----------------------------------|
D|-----------------------------------|
A|----3/5-3-2---3/5-3-2-3------------|
E|--3---------3----------------------|

Verse Riff B (4x)
Chorus Riff B w/ distortion (9x)

End Riff w/ distortion (1x)
   F  A   G             
e|-----------------------------------------------------|
B|-----------------------------------------------------|
G|-----------------------------------------------------|
D|-3--7--5---------------------------------------------|
A|-3--7--5---------------------------------------------|
E|-1--5--3---------------------------------------------|
Tap to rate this tab
 
# A B C D E F G H I J K L M N O P Q R S T U V W X Y Z