Song name
# A B C D E F G H I J K L M N O P Q R S T U V W X Y Z

Better Than Ezra - Our Last Night tab

-------------------------------------------------------------------------------
                             Our last night - Better than ezra
-------------------------------------------------------------------------------
Tabbed by: Gage182
E-mail: uw.all.day@gmail.com

Tuning: is standard, this is the way ive always played it. enjoy!
                                 
                                 Intro
      D       A            Em     G    

e|----2-2--2--0-0-0-0-0-0--0-0-0--3-3-3-3-3-3-3-------------------------------|
B|----3-3--3--3-3-3-3-3-3--0-0-0--3-3-3-3-3-3-3-------------------------------|
G|----2-2--2--3-3-3-3-3-3--0-0-0--0-0-0-0-0-0-0-------------------------------|  This is the song
D|----0-0--0--3-3-3-3-3-3--2-2-2--0-0-0-0-0-0-0-------------------------------|
A|----0-0--0--0-0-0-0-0-0--2-2-2--2-2-2-2-2-2-2-------------------------------|
E|----0-0--0--0-0-0-0-0-0--0-0-0--3-3-3-3-3-3-3-------------------------------|
Tap to rate this tab
 
# A B C D E F G H I J K L M N O P Q R S T U V W X Y Z