Song name
# A B C D E F G H I J K L M N O P Q R S T U V W X Y Z

Better Than Ezra - Get You In tab

----------------------------------------------------------------------------
			     Get You In - Better Than Ezra
----------------------------------------------------------------------------
Tabbed by: Michael Crews
Email:ResidentAdolescent@Hotmail.com

Tuning: Standard (EADGBE)
Just play these four chords

  B  F#  Abm  E
|-2--2---4----0-----------------|
|-4--2---4----0-----------------|
|-4--3---4----1-----------------|
|-4--4---6----2-----------------|
|-2--4---6----2-----------------|
|----2---4----0-----------------|
As always, enjoy and much <3!!!!1!!one
Tap to rate this tab
# A B C D E F G H I J K L M N O P Q R S T U V W X Y Z