Guitaretab - guitar tabs
Song name
# A B C D E F G H I J K L M N O P Q R S T U V W X Y Z

Better Than Ezra - Long Lost tab

Long Lost

(Main riff; strumming the 1st and 2nd strings open adds to the overall sound)
  C#5    G#m   A5        D5 E5
E|---------------------------------|
B|---------------------------------|
G|-6---------------------7--9------|
D|-6-----6-----7---------7--9------|
A|-4-----6-----7---------5--7------|
E|-------4-----5-------------------|

E|------0----------------0-------------------0-------|
B|------0------------------0-----------------0-------|
G|------6--------------------6------------6----------|
D|---6--6-------------------------------6------------|
A|-4----4--------------------------------------------|
E|---------------------------------------------------|
   Are you lost? Do you find life turning out not quite _


E|------0----------------0----------------------0----0-|
B|--------0-----------6--0----------------------0----0-|
G|----------6-------6---------------------------6----6-|
D|----------------------------------------------6----6-|
A|-----------------------------------------------------|
E|-----------------------------------------------------|
    The way you _ planned?    Come around, stay a - while

[ Tab from: http://www.guitaretab.com/b/better-than-ezra/60720.html ]
C#5      G#5   A5         D5
That's O - K _ that's all right
C#5      G#5   A5         D5        E5       C#5 G#5
Couldn't get to _ sleep, so talk about it
A5      D5        C#5       G#5
Let's talk about it right now

(Pre-chorus)
B                   A(9)
Here it comes on my head again
Well I guess I'm born to be the long lost...

(Chorus)
E          B             Asus2       B
Friend            Aw     whoo
Friend             long lost friend

(Bridge)
A  B  C#5          B5
       I've given ballast,
         A5                        C#5
Held you up when you were falling down
            B5                  A5
But what happens when I'm not around?

(Outro solo with wah-wah)
E|-16--19/21---17--16-----------------------------|
B|------------------------------------------------|
G|-------------------------11-----6h76\4--4------|
D|------------------------------------------------|
A|------------------------------------------------|
E|------------------------------------------------|

E|-------------------------------------------------------------------------|
B|-------------------------9b-----7---------------------------------------|
G|-9b---8b\6---4b---6b----------------8b8\6--6/11---(11)---4---4---4---4-|
D|-------------------------------------------------------------------------|
A|-------------------------------------------------------------------------|
E|-------------------------------------------------------------------------|
Related for Long Lost tab