Song name
# A B C D E F G H I J K L M N O P Q R S T U V W X Y Z

Better Than Ezra - Juicy tab

"Juicy" by Better than Ezra
This is off of the Before the Robots CD
Enjoy! tab by rw

Standard Tuning
Intro/verse:
e--------------------------------------------|
B--------------------------------------------|
G--------------------------------------------|
D-----3-4-5-5--------------------------------| play until "ah ah ah" part
A-5-5---------5-4-3-3---------3-4------------|
E---------------------5-4-3-3----------------|
"ah ah ah ah" part:
e-------------------------------------------------|
B-------------------------------------------------|
G-------------------------------------------------|
D---3-4-5-----------------------------------------|
A-5----------3-3-3--------------------------------| go to bridge
E------------------5-4-3--------------------------|
Bridge:
 strum F C G Bb C then play intro/verse again
Bass interlude then play "intro/verse" riff
then strum bridge chords to outro which is same
as intro
Tap to rate this tab
# A B C D E F G H I J K L M N O P Q R S T U V W X Y Z