Song name
# A B C D E F G H I J K L M N O P Q R S T U V W X Y Z

Better Than Ezra - A Southern Thing tab

tabbed by yaoalmighty...o snap
this is my first tab ever so hold on...

into/verse (for the verse-listen to the song carefully because he sometimes leave the 
couple notes out)
eb------------------------------------------|
Bb------------------------------------------|
Gb------------------------------------------|
Db------------------------------------------|
Ab------------10----------------------------|
Eb-0-0-10p0-0----0-0-0h3-3-3----------------|

chorus
eb------------------------------------------|
Bb------------------------------------------|
Gb--------------------------5-5555----------|
Db-2-2-XXXX-5-5555/7-7-XXXX-5-5555----------|
Ab-2-2-XXXX-5-5555/7-7-XXXX-3-3333----------|
Eb-0-0-XXXX-3-3333/5-5-XXXX-----------------|

eb------------------------------------------|
Bb------------------------------------------|
Gb---------------------------7777-----------|
Db-2-2-XXXX-5-5555/7-7-77-77-7777-----------|
Ab-2-2-XXXX-5-5555/7-7-77-77-5555-----------|
Eb-0-0-XXXX-3-3333/5-5-55-55----------------|

eb------------------------------------------|
Bb------------------------------------------|
Gb--------------------------5-5555----------|
Db-2-2-XXXX-5-5555/7-7-XXXX-5-5555----------|
Ab-2-2-XXXX-5-5555/7-7-XXXX-3-3333----------|
Eb-0-0-XXXX-3-3333/5-5-XXXX-----------------|

eb------------------------------------------|
Bb------------------------------------------|
Gb------------------------------------------|
Db-2-2-XXXX-5-5555/7-7-77-77-2222-----------|
Ab-2-2-XXXX-5-5555/7-7-77-77-2222-----------|
Eb-0-0-XXXX-3-3333/5-5-55-55-0000-----------|

well thas all i got so far because the rest of the song is a little hard to hear with 
effects he has but yeah...rate it
Tap to rate this tab
# A B C D E F G H I J K L M N O P Q R S T U V W X Y Z