Song name
# A B C D E F G H I J K L M N O P Q R S T U V W X Y Z

Betty Blowtorch - Get Off tab

Get Off

d|--------------------|
a|--------------------|
f|------11--12--7--9--|
c|--11--11--12--7--9--|
g|--11---9--10--5--7--|
C|--11----------------| Intro/Verse

d|----------------|
a|----------------|
f|-----9----------|
c|--9--9--11--10--|
g|--9--7--11--10--|
C|--9-----11--10--| Chorus

d|------------------------------------------------|
a|------------------------------------------------|
f|--11---------11-------------11--12------11--12--|
c|--11--9--11--11--9--11--11--11--12--11--11--12--|
g|---9--9--11---9--9--11--11---9--10--11---9--10--|
C|------9--11------9--11--11----------11----------| Chorus (Cont.)

OR

Get Off - Betty Blowtorch - Last Call

Intro
e|-----|-------|
b|-----|-------|
g|-----|-------|
d|--9--|-------|
a|--9--|-------|
E|--7--|--(7)--|

Verse
e|--------------------|
b|--------------------|
g|-----9--10----------|
d|--9--9--10--10--12--|
a|--9--7---8--10--12--|
E|--7----------8--10--|

Chorus
Part 1               Part 2      Part 3
e|-------------------|-----------|------------|
b|-------------------|-----------|------------|
g|-----7-------------|--9--------|-----9--10--|
d|--7--7--9----8--7--|--9--7--9--|--9--9--10--|
a|--7--5--9----8--7--|--7--7--9--|--9--7---8--|
E|--5-----7----6--5--|-----5--7--|--7---------|

Tap to rate this tab
# A B C D E F G H I J K L M N O P Q R S T U V W X Y Z