Song name
# A B C D E F G H I J K L M N O P Q R S T U V W X Y Z

Betty Blowtorch - Teenage Whore tab

Help us improve GuitareTab! Take a short survey!
Teenage Whore - Betty Blowtorch (From the album "Last Call")

Intro
d|---------------------------------------------------------------------------------|
a|---------------------------------------------------------------------------------|
f|-------------------------------------6-4-4-4-------------------------------------|
c|-------------------------------6-3-4---------6-4-6-4-----------------------------|
g|---4-4-4-------2-2-2---------4-----------------------4-4-4-4---------2-2-2-------|
C|-6-------4-4-4-------6-4-6-4---------------------------------4-4-4-4-------5-7-5-|

Verse
d|-----------|
a|-----------|
f|-----------|
c|--4--7--5--|
g|--4--7--5--|
C|--4--7--5--|

Chorus
d|-------------|
a|-------------|
f|--10---------|
c|--10--11--9--|
g|---8--11--9--|
C|------11--9--|
Related for Teenage Whore tab