Guitaretab - guitar tabs
Song name
# A B C D E F G H I J K L M N O P Q R S T U V W X Y Z

Betty Blowtorch - Im Ugly And I Dont Know Why tab

Iím Ugly And I Donít Know Why - Betty Blowtorch - Last Call / Are You Man Enough?
[ Tab from: http://www.guitaretab.com/b/betty-blowtorch/141331.html ]
Verse
e|--------------------------------3--1--0--------------------------------------|
b|--------3--1--------------------------------------1--------------------------|
g|--------------0--------------------------------2-----2--------------3--------|
d|-----------------------------0--------------2-----------2--------3-----3-----|
a|--3--3-----------3--2-----2--------------0--------------------3-----------3--|
E|-----------------------3-----------------------------------1-----------------|

Chorus
e|-----------|
b|-----------|
g|--5--------|
d|--5--5--7--|
a|--3--5--7--|
E|-----3--5--|
Related for Im Ugly And I Dont Know Why tab