Song name
# A B C D E F G H I J K L M N O P Q R S T U V W X Y Z

Betty Blowtorch - Hell On Wheels tab

Help us improve GuitareTab! Take a short survey!
---------------------------------------------------------------
Hell On Wheels - Betty Blowtorch - (From the album Last Call)
---------------------------------------------------------------

Tuning --- Cgcfad

d|-----------|
a|-----------|
f|-----9-----|
c|--4--9--9--|
g|--4--7--9--|
C|--4-----9--| Verse/Chorus

OR

---------------------------------------------------------------------------------------
 Hell On Wheels - Betty Blowtorch - from the album Last Call + Are You Man Enough?
---------------------------------------------------------------------------------------

Intro/Verse/Chorus
e|-----------|
b|-----------|
g|-----7-----|
d|--2--7--7--|
a|--2--5--7--|
E|--0-----5--|

Related for Hell On Wheels tab