Song name
# A B C D E F G H I J K L M N O P Q R S T U V W X Y Z

Betty Blowtorch - Size Queen tab

Riff 1
e|-----------------------------------|
b|-----------------------------------|
g|--9--7--9--7--9--7--9--7-----7--9--|
d|--------------------------9--------|
a|-----------------------------------|
E|-----------------------------------|

Riff 2 Intro/Verse/Chorus
e|-----------------------------------------|
b|-----------------------------------------|
g|-----------------------------4--4--4--4--|
d|--2--2--2--5--5--5--4--4--4--4--4--4--4--|
a|--2--2--2--5--5--5--4--4--4--2--2--2--2--|
E|--0--0--0--3--3--3--2--2--2--------------|

Riff 3
e|--------------------------------------------------------------|
b|--------------------------------------------------------------|
g|--5--5--5--5--5--5--5--5--5--5--5--5--5--5--5--5--------------|
d|--5--5--5--5--5--5--5--5--5--5--5--5--5--5--5--5--7--7--7--5--|
a|--3--3--3--3--3--3--3--3--3--3--3--3--3--3--3--3--7--7--7--5--|
e|--------------------------------------------------5--5--5--3--|

Riff 1
e|-----------------------------------|
b|-----------------------------------|
g|--9--7--9--7--9--7--9--7-----7--9--|
d|--------------------------9--------|
a|-----------------------------------|
E|-----------------------------------|

Riff 4
e|--------------------------------------------------------------|
b|--------------------------------------------------------------|
g|-----------------2--2--2--2--2-----------------2--2--2--2--2--|
d|--2--2--2--2--2--2--2--2--2--2--2--2--2--2--2--2--2--2--2--2--|
a|--2--2--2--2--2--0--0--0--0--0--2--2--2--2--2--0--0--0--0--0--|
E|--0--0--0--0--0-----------------0--0--0--0--0-----------------|

--------------------------------------------------------------|
--------------------------------------------------------------|
-----------------2--2--2--2--2-----------------2--2--2--2--2--|
--2--2--2--2--2--2--2--2--2--2--2--2--2--2--2--2--2--2--2--2--|
--2--2--2--2--2--0--0--0--0--0--2--2--2--2--2--0--0--0--0--0--|
--0--0--0--0--0-----------------0--0--0--0--0-----------------|

--------------------------------|
--------------------------------|
-----------------2--2--2--2--2--|
--2--2--2--2--2--2--2--2--2--2--|
--2--2--2--2--2--0--0--0--0--0--|
--0--0--0--0--0-----------------|
Tap to rate this tab
# A B C D E F G H I J K L M N O P Q R S T U V W X Y Z