Song name
# A B C D E F G H I J K L M N O P Q R S T U V W X Y Z

Betty Blowtorch - Rock My World tab

Rock My World - Betty Blowtorch

Intro 1
e|-----------------------------------------|
b|-----------------------------------------|
g|------------5--5X--5--7--7X--7-----------|
d|--7--7X--7--5--5X--5--7--7X--7--5--6--7--|
a|--7--7X--7--3--3X--3--5--5X--5--5--6--7--|
E|--5--5X--5----------------------3--4--5--|

Intro 2
e|------------------------------------------------------------------------------------------------
b|------------------------------------------------------------------------------------------------
g|--9-9-9-9-9-9-9~-9-7-------------7--------------------------------------------------------5-----
d|---------------------10-7-7-10-7---10-7-10-10-9----9h10p9----9h10p9-------9h10p9------------7---
a|------------------------------------------------10--------10-----------10--------10-5-6-7-----5-
E|------------------------------------------------------------------------------------------------

-------------|
-------------|
------7-5-9~-|
-------------|
--6-7--------|
-------------|

Verse
e|--------------------------------------|
b|--------------------------------------|
g|--------------------------------------|
d|--7--7X--5--5X--5--5--5X--------3--5--|
a|--7--7X--5--5X--5--5--5X--[x3]--3--5--|
E|--5--5X--3--3X--3--3--3X--------1--3--|

Chorus
e|--------|
b|--------|
g|--------|
d|--7--5--|
a|--7--5--|
E|--5--3--|

“Who needs you...”
e|-----------|
b|-----------|
g|--5--------|
d|--5--5--7--|
a|--3--5--7--|
E|-----3--5--|

Solo
e|-----------|
b|-----------|
g|-----5-----|
d|--7--5--5--|
a|--7--3--5--|
E|--5-----3--|

Outro
e|--------------|
b|--------------|
g|-----5--7-----|
d|--7--5--7--5--|
a|--7--3--5--5--|
E|--5--------3--|

End
e|-----|
b|-----|
g|-----|
d|--7--|
a|--7--|
E|--5--|
Tap to rate this tab
# A B C D E F G H I J K L M N O P Q R S T U V W X Y Z