Song name
# A B C D E F G H I J K L M N O P Q R S T U V W X Y Z

Betty Blowtorch - Im Ugly And I Dont Know Why tab

             I'm Ugly And I Don't Know Why - Betty Blowtorch

                        Originally by Butt Trumpet

Tunning: Standard


    Intro:
e|----------------------3--------------------------------------------------|
B|-------3-1--------------0--------1-----1---------------------------------|
G|---0-------0------0-------0--------2----2---0-----2---3-2------2times----|
D|-----2-------0------0-------0-------------2---------3-----3-0------------|
A|--3-----------------------------0----0-----------------------------------|
E|----------------3-------------------------------1------------------------|

e|----------------------3--------------------------------------------------|
B|-------3-1--------------0--------1-----1---------------------------------|
G|---0-------0------0-------0--------2----2---0----------------------------|
D|-----2-------0------0-------0-------------2-------3-3-3-3-3-3-3-3--------|
A|--3-----------------------------0----0------------3-3-3-3-3-3-3-3--------|
E|----------------3---------------------------------1-1-1-1-1-1-1-1--------|
   Verses:
e|----------------------3--------------------------------------------------|
B|-------3-1--------------0--------1-----1---------------------------------|
G|---0-------0------0-------0--------2----2---0-----2---3-2------2times----|
D|-----2-------0------0-------0-------------2---------3-----3-0------------|
A|--3-----------------------------0----0-----------------------------------|
E|----------------3-------------------------------1------------------------|
    Chorus:
e|-------------------------------------------------------------------------|
B|-------------------------------------------------------------------------|
G|--55-----------------------5---------------------------------------------|
D|--55-55-77777777--3times---5-5-7-----------------------------------------|
A|--33-55-77777777-----------3-5-7-----------------------------------------|
E|-----33-55555555-------------3-5-----------------------------------------|
Tap to rate this tab
# A B C D E F G H I J K L M N O P Q R S T U V W X Y Z