Song name
# A B C D E F G H I J K L M N O P Q R S T U V W X Y Z

Betty Blowtorch - I Wanna Be On Epitaph tab

I Wanna Be On Epitaph - Betty Blowtorch - Last Call

Intro
e|--------------|--7--5-----------------|
b|--------------|--------8--7--5--------|
g|-----7--9--5--|-----------------7--4--|
d|--5--7--9--5--|-----------------------|
a|--5--5--7--3--|-----------------------|
E|--3-----------|-----------------------|

Verse/Chorus
e|--------------|
b|--------------|
g|-----7--9--5--|
d|--5--7--9--5--|
a|--5--5--7--3--|
E|--3-----------|

Solo
e|----------------------------------------------------------------------------------------------------|
b|--8~--7-----7--8~--7-----8~--7-----7--8~--7-----8--8--7--7------------------------------------------|
g|---------9------------9---------9------------9--------------9--9--7--7------------------------------|
d|------------------------------------------------------------------------10--10--9--9--7--7----------|
a|--------------------------------------------------------------------------------------------10--10--|
E|----------------------------------------------------------------------------------------------------|

e|------------------------------------------------------|
b|--8--8--7--7------------------------------------------|
g|--------------9--9--7--7------------------------------|
d|--------------------------10--10--9--9--7--7----------|
a|----------------------------------------------10--10--|
E|------------------------------------------------------|
Tap to rate this tab
# A B C D E F G H I J K L M N O P Q R S T U V W X Y Z