Song name
# A B C D E F G H I J K L M N O P Q R S T U V W X Y Z

Betty Blowtorch - Party Til Ya Puke tab

Party Til Ya Puke

d|------------|
a|------------|
f|--9--12--7--|
c|--9--12--7--|
g|--7--10--5--|
C|------------| Verse

d|-----------------------|
a|-----------------------|
f|--9--10------12--7--9--|
c|--7--10--10--12--7--9--|
g|--7---8--10--10--5--7--|
C|---------10------------| Chorus

d|---------|
a|---------|
f|--9------|
c|--9--10--|
g|--7--10--|
C|-----10--|


OR


Party Til Ya Puke - Betty Blowtorch - Last Call

Intro/Verse/Solo
e|--------------|
b|--------------|
g|------10------|
d|--12--10--10--|
a|--12---8--10--|
E|--10-------8--|

Chorus
e|--------------------------|
b|--------------------------|
g|--7--8-----8--10----------|
d|--7--8--8--8--10--10--10--|
a|--5--6--8--6---8--10--10--|
E|--------6----------8--12--|

e|--------|
b|--------|
g|--7-----|
d|--7--8--|
a|--5--8--|
E|-----6--|

Tap to rate this tab
# A B C D E F G H I J K L M N O P Q R S T U V W X Y Z