Song name
# A B C D E F G H I J K L M N O P Q R S T U V W X Y Z

Betty Blowtorch - Fish Taco tab

Help us improve GuitareTab! Take a short survey!
Fish Taco - Betty Blowtorch - Last Call

Verse
e|--------|
b|--------|
g|--------|
d|--7--5--|
a|--7--5--|
E|--5--3--|

Pre-Chorus
e|-----------|
b|-----------|
g|-----------|
d|--4--5--7--|
a|--4--5--7--|
E|--2--3--5--|

Chorus
e|--------------|
b|--------------|
g|--4-----------|
d|--4--5--7--4--|
a|--2--5--7--4--|
E|-----3--5--2--|

e|-----------|
b|-----------|
g|--4--------|
d|--4--5--7--|
a|--2--5--7--|
E|-----3--5--|

Solo
e|----------------------------------------------------------------------------|
b|--------------------7-7-7-7---------------------------------------------7~--|
g|--4-4-4-7-7-7-6-6-6---------4-4-4-7-7-7-6-6-6---------4-4-4-7-7-7-6-6-6-----|
d|----------------------------------------------4-4-4-4-----------------------|
a|----------------------------------------------------------------------------|
E|----------------------------------------------------------------------------|

Outro
e|-----------|
b|-----------|
g|--4--------|
d|--4--5--7--|
a|--2--5--7--|
E|-----3--5--|
Pm  .
Related for Fish Taco tab