Song name
# A B C D E F G H I J K L M N O P Q R S T U V W X Y Z

Betty Blowtorch - Shrinkwrap tab

Shrinkwrap - Betty Blowtorch - Last Call

Verse
e|--------2-----------3-----------0-----------------|
b|-----------3-----------3-----------1--------2-----|
g|-----2-----------------------0-----------------2--|
d|--0--------------0-----------------------2--------|
a|--------------------------3-----------0-----------|
E|--------------3-----------------------------------|

Chorus
e|--------------|
b|--------------|
g|--7-----5-----|
d|--7--5--5--7--|
a|--5--5--3--7--|
E|-----3-----5--|
Tap to rate this tab
 
# A B C D E F G H I J K L M N O P Q R S T U V W X Y Z