Song name
# A B C D E F G H I J K L M N O P Q R S T U V W X Y Z

Betty Blowtorch - Shut Up And Fuck tab

Shut Up And Fuck

d|---------------|
a|---------------|
f|---------------|
c|--4--9--10--9--|
g|--4--9--10--9--|
C|--4--9--10--9--| Intro

d|---------------|
a|---------------|
f|---------------|
c|--4--9--10--9--|
g|--4--9--10--9--|
C|--4--9--10--9--| Verse
Pm  ...........

d|---------------|
a|---------------|
f|---------------|
c|--4--9--10--9--|
g|--4--9--10--9--|
C|--4--9--10--9--| Pre-Chorus

d|------------------7-7-7-8-8-8-7-7-7-7-|
a|--10~-9~-8~-7-7-7---------------------|
f|--------------------------------------|
c|--------------------------------------|
g|--------------------------------------|
C|--------------------------------------| Chorus

OR

Shut Up And Fuck - Betty Blowtorch - Last Call

Intro/Verse(pm)
e|--------------|
b|--------------|
g|--------------|
d|--2--7--8--7--|
a|--2--7--8--7--|
E|--0--5--6--5--|

Chorus
e|-----------------------------------------------------|
b|-----------------------------------------------------|
g|-----------------------------------------------------|
d|--9--8--7--2--7--8--7--------------------------------|
a|--9--8--7--2--7--8--7--------------------------------|
E|--7--6--5--0--5--6--5--------------------------------|
 |                                                     |
e|-----------------------5--5--5--6--6--6--5--5--5--5--|
b|--8~--7~--6~--5--5--5--------------------------------|
g|-----------------------------------------------------|
d|-----------------------------------------------------|
a|-----------------------------------------------------|
E|-----------------------------------------------------|

End
e|-----|
b|-----|
g|-----|
d|--2--|
a|--2--|
E|--0--|

Tap to rate this tab
# A B C D E F G H I J K L M N O P Q R S T U V W X Y Z