Guitaretab - guitar tabs
Song name
# A B C D E F G H I J K L M N O P Q R S T U V W X Y Z

Betty Blowtorch - Diarrhea tab

Diarrhea

d|--------------------------|
a|--------------------------|
f|--------------------------|
c|--4--7--4--7--4--7--4--7--|
g|--4--7--4--7--4--7--4--7--|
C|--4--7--4--7--4--7--4--7--| Intro
[ Tab from: http://www.guitaretab.com/b/betty-blowtorch/68483.html ]
d|--------------------------------|
a|--------------------------------|
f|--------------------------7--4--|
c|--4--7--4--7--4--7--4--7--7--4--|
g|--4--7--4--7--4--7--4--7--5--2--|
C|--4--7--4--7--4--7--4--7--------| Verse
Pm  ......................

OR

Diarrhea - Betty Blowtorch - Last Call

Intro
e|--------|
b|--------|
g|--------|
d|--2--5--|
a|--2--5--|
E|--0--3--|

Verse
e|--------------|
b|--------------|
g|--------5-----|
d|--2--5--5--7--|
a|--2--5--3--7--|
E|--0--3-----5--|

End
e|--------|
b|--------|
g|--------|
d|--5--2--|
a|--5--2--|
E|--3--0--|


Related for Diarrhea tab
Advertisement will be closed in 10 seconds