Song name
# A B C D E F G H I J K L M N O P Q R S T U V W X Y Z

Betty Blowtorch - I Wanna Be Your Sucker tab

---------------------------------------------------------------------
I Wanna Be Your Sucker - Betty Blowtorch (From the album “Last Call”)
---------------------------------------------------------------------

d|--------------|
a|--------------|
f|--6--9--4--6--|
c|--6--9--4--6--|
g|--4--7--2--4--|
C|--------------| Verse/Chorus

OR

-------------------------------------------------------------------
I Wanna Be Your Sucker - Betty Blowtorch - from the album Last Call
-------------------------------------------------------------------

Verse(pm)/Chorus
e|--------------|
b|--------------|
g|-----7--------|
d|--9--7--7--9--|
a|--9--5--7--9--|
E|--7-----5--7--|
Tap to rate this tab
# A B C D E F G H I J K L M N O P Q R S T U V W X Y Z