Song name
# A B C D E F G H I J K L M N O P Q R S T U V W X Y Z

Betty Blowtorch - Kill The Butcher tab

---------------------------------------------------------------
Kill The Butcher - Betty Blowtorch (From the album "Last Call")
---------------------------------------------------------------

d|--------|
a|--------|
f|--------|
c|--4--7--|
g|--4--7--|
C|--4--7--| Verse

d|--------|
a|--------|
f|--------|
c|--9--7--|
g|--9--7--|
C|--9--7--| Chorus

OR

---------------------------------------------------------------
Kill The Butcher - Betty Blowtorch (From the album "Last Call")
---------------------------------------------------------------

Intro/Verse
e|--------|
b|--------|
g|--------|
d|--2--5--|
a|--2--5--|
E|--0--3--|

Chorus 1
e|--------|
b|--------|
g|--------|
d|--7--5--|
a|--7--5--|
E|--5--3--|

Chorus 2
e|--------|-----------------------------|
b|--------|-----------------------------|
g|--------|--4--7--4-----5--------------|
d|--7--5--|--4--7--4--7--5--7--5--3--2--|
a|--7--5--|--2--5--2--7--3--7--5--3--2--|
E|--5--3--|-----------5-----5--3--1--0--|

Tap to rate this tab
# A B C D E F G H I J K L M N O P Q R S T U V W X Y Z