Song name
# A B C D E F G H I J K L M N O P Q R S T U V W X Y Z

Betty Blowtorch - Love-hate tab

--------------------------------------------------------
Love/Hate - Betty Blowtorch - from the album “Last Call”
--------------------------------------------------------

d|----------------|
a|----------------|
f|--8-----11------|
c|--8--9--11--11--|
g|--6--9---9--11--|
C|-----9------11--| Intro

d|----------------|
a|----------------|
f|--8-----11------|
c|--8--9--11--11--|
g|--6--9---9--11--|
C|-----9------11--| Verse
Pm  ............

d|----------------|
a|----------------|
f|--8-----11------|
c|--8--9--11--11--|
g|--6--9---9--11--|
C|-----9------11--| Chorus

OR

--------------------------------------------------------
Love/Hate - Betty Blowtorch - from the album “Last Call”
--------------------------------------------------------

Intro/Verse(pm)/Chorus

e|-------------------|
b|-------------------|
g|---6-------9-------|
d|---6---7---9---9---|
a|---4---7---7---9---|
E|-------5-------7---|

Tap to rate this tab
# A B C D E F G H I J K L M N O P Q R S T U V W X Y Z