Song name
# A B C D E F G H I J K L M N O P Q R S T U V W X Y Z

Betty Blowtorch - Im Ugly And I Dont Know Why tab

 Butt Trumpet - I'm ugly and I don't know why?

 (STANDARD TUNING)
 Get distortion on C chord for accurate sound.

-----------------------------------------------------------------------
 (Finger placement for chords)

  C             G             Am            Fm
   -|-|-|-|-|-   -|-|3|-|-|-   -|-|-|-|-|-   1|-|-|-|--|
   1|-|-|-|-|-   -|-|-|-|-|-   1|-|-|-|-|-   1|-|-|-|--|
   -|-|-|-|-|-   -|-|-|-|-|-   -|3|-|-|-|-   1|-|-|-|--|
   -|2|-|-|-|-   -|-|-|-|-|-   -|2|-|-|-|-   1|-|4|-|--|
   -|-|3|-|-|-   -|1|-|-|-|-   -|-|-|-|-|-   1|-|3|-|--|
   -|-|-|-|-|-   -|-|2|-|-|-   -|-|-|-|-|-   1|-|-|-|--|

  (Strumming pattern)

  d = downstroke   u = Upstroke
-----------------------------------------------------------------------


   C           G           Am          Fm
  ----------------3-0-------------------------------|
  ----3-1--------0---0--------3-1---------1---------|
  ---0---0------0-----0------2---2-------1--1-------|
  --2-----2-----------------2-----2-----3----3------|   X5
  -3-----------3-----------0------------------3-----|
  -------------------------------------1------------|


    C               G               Am
    1 + 2 + 3 + 4 + 1 + 2 + 3 + 4 + 1 + 2 + 3 + 4 + 1 + 2 + 3 + 4 +  x3
    d   d   d   d u d   d   d   d u d   d       d       d   d u d u


    C               G               Am
    1 + 2 + 3 + 4 + 1 + 2 + 3 + 4 + 1 + 2 + 3 + 4 + 1 + 2 + 3 + 4 +  x1
    d               d               d


 (SOLO)


   C           G           Am          Fm
  ----------------3-0-------------------------------|
  ----3-1--------0---0--------3-1---------1---------|
  ---0---0------0-----0------2---2-------1--1-------|
  --2-----2-----------------2-----2-----3----3------|   X2
  -3-----------3-----------0------------------3-----|
  -------------------------------------1------------|

    C               G               Am
    1 + 2 + 3 + 4 + 1 + 2 + 3 + 4 + 1 + 2 + 3 + 4 + 1 + 2 + 3 + 4 +  x3
    d   d   d   d u d   d   d   d u d   d       d       d   d u d u


    C               G               Am
    1 + 2 + 3 + 4 + 1 + 2 + 3 + 4 + 1 + 2 + 3 + 4 + 1 + 2 + 3 + 4 +  x1
    d               d               d


 (2nd SOLO with background finger picking of chords C G Am Fm)


    C               G               Am
    1 + 2 + 3 + 4 + 1 + 2 + 3 + 4 + 1 + 2 + 3 + 4 + 1 + 2 + 3 + 4 +  x3
    d   d   d   d u d   d   d   d u d   d       d       d   d u d u


 C               G               Am
    1 + 2 + 3 + 4 + 1 + 2 + 3 + 4 + 1 + 2 + 3 + 4 + 1 + 2 + 3 + 4 +  x1
    d               d               d

TABBED BY neavesie01
Tap to rate this tab
# A B C D E F G H I J K L M N O P Q R S T U V W X Y Z