Song name
# A B C D E F G H I J K L M N O P Q R S T U V W X Y Z

Betty Blowtorch - Rock N Roll 85 tab

Rock N Roll 85 - Betty Blowtorch

Intro
e|-----------------------------|
b|-----------------------------|
g|-----5--7-----5--7-----------|
d|--7--5--7--7--5--7--3--5--7--|
a|--7--3--5--7--3--5--3--5--7--|
E|--5--------5--------1--3--5--|

Verse
e|---------------|
b|---------------|
g|---------------|
d|--7X--3--5--7--|
a|--7X--3--5--7--|
E|--5X--1--3--5--|

Chorus
e|-----------------------------------|
b|-----------------------------------|
g|--7--5--------7--5-----7--5-----4--|
d|--7--5--7--5--7--5--7--7--5--7--4--|
a|--5--3--7--5--5--3--7--5--3--7--2--|
E|--------5--3--------5--------5-----|

e|-----------------------------------------|
b|-----------------------------------------|
g|--------------------------------------9--|
d|--7--5--3--5--7--5--3--5--7--5--3--5--9--|
a|--7--5--3--5--7--5--3--5--7--5--3--5--7--|
E|--5--3--1--3--5--3--1--3--5--3--1--3-----|
Tap to rate this tab
# A B C D E F G H I J K L M N O P Q R S T U V W X Y Z