Guitaretab - guitar tabs
Song name
# A B C D E F G H I J K L M N O P Q R S T U V W X Y Z

Betty Blowtorch - Frankie tab

Betty Blowtorch - Frankie

Intro
e|-----------------------------------------------------|--------------------------------------|
b|--------------------------------------------7--------|--------------------------------------|
g|-----8--9--8--------8--9--8--------8--9--8-----9--8--|--------------------------------------|
d|--9-----------9--7-----------9--6--------------------|--------------------------------------|
a|-----------------------------------------------------|-----6--7--6--------6--7--6--------6--|
E|-----------------------------------------------------|--7-----------7--5-----------7--4-----|

e|-----------------------------|-----------------|
b|-----------------------------|--12~--10~--17~--|
g|-----------------------------|-----------------|
d|-----------------------------|-----------------|
a|--7--6-----6--7--6-----------|-----------------|
E|--------7-----------7--5--7--|-----------------|

Verse/Solo
e|--------------|
b|--------------|
g|--------------|
d|--9--7--6--9--|
a|--9--7--6--9--|
E|--7--5--4--7--|

Chorus/Outro
e|-----------------|
b|-----------------|
g|------------9----|
d|----9---7---9----|
a|----9---7---7----|
E|----7---5--------|
[ Tab from: http://www.guitaretab.com/b/betty-blowtorch/83448.html ]
“Get your own man hooker…”
e|--------------------------------------|--------------|
b|--------------------------------------|--------------|
g|--------------------------------------|--5-----3-----|
d|--4--4--4--4--4--4--4--4--4--4--4--7--|--5--5--3--3--|
a|--4--4--4--4--4--4--4--4--4--4--4--7--|--3--5--1--3--|
E|--2--2--0--2--0--2--0--2--0--2--2--5--|-----3-----1--|
Pm                                   .

Solo Part 2
e|-----------------------------------------------------------------|
b|-----------------------------------------------------------------|
g|-----8--9--8--------8--9--8--------8--9--8-----8--9--8-----------|
d|--9-----------9--7-----------9--6-----------9-----------9--7--9--|
a|-----------------------------------------------------------------|
E|-----------------------------------------------------------------|
 |                                                                 |
e|-----------------------------------------------------------------|
b|-----------------------------------------------------------------|
g|-----------------------------------------------------------------|
d|-----------------------------------------------------------------|
a|-----6--7--6--------6--7--6--------6--7--6-----6--7--6-----------|
E|--7-----------7--5-----------7--4-----------7-----------7--5--7--|
Related for Frankie tab
×
Frankie