Song name
# A B C D E F G H I J K L M N O P Q R S T U V W X Y Z

Betty Blowtorch - Big Hair Broken Heart tab

Betty Blowtorch - Big Hair, Broken Heart

Intro
e|-------------------------------------------------|
b|-------------------------------------------------|
g|----------------5--------------------------------|
d|----------------5--------5--------3--------------|
a|----------------3--------5--------3--------------|
E|-------------------------3--------1--------------|
 |                                                 |
e|-------------------------------------------------|
b|--8---------8---------8--------------------------|
g|-----9---------9---------9------9b--7--9--7------|
d|--------10--------10--------10---------------10--|
a|-------------------------------------------------|
E|-------------------------------------------------|

Verse
e|-----------|
b|-----------|
g|--5--------|
d|--5--5--3--|
a|--3--5--3--|
E|-----3--1--|
Pm  .  .  .

Chorus
e|-----------|
b|-----------|
g|--7--------|
d|--7--7--5--|
a|--5--7--5--|
E|-----5--3--|

Chorus
e|-----------|
b|-----------|
g|--9--------|
d|--9--9--7--|
a|--7--9--7--|
E|-----7--5--|

Outro
e|-----------------------------------------------------------|
b|-----------------------------------------------------------|
g|------------------9----------------------------------------|
d|------------------9----------9----------7------------------|
a|------------------7----------9----------7------------------|
E|-----------------------------7----------5------------------|
 |                                                           |
e|-----------------------------------------------------------|
b|--12----------12----------12-------------------------------|
g|------13----------13----------13------13b--11--13--11------|
d|----------14----------14----------14-------------------14--|
a|-----------------------------------------------------------|
E|-----------------------------------------------------------|
Tap to rate this tab
 
# A B C D E F G H I J K L M N O P Q R S T U V W X Y Z