Guitaretab - guitar tabs
Song name
# A B C D E F G H I J K L M N O P Q R S T U V W X Y Z

Betty Curse - God This Hurts tab

Song:God This Hurts
Artist: Betty Curse

I saw that there were literally no Betty Curse songs on here, and I wanted to learn to
it, so I sat and tabbed it out. It's all right (well should be) because I played it
the song and it all sounds in sync and in the right key and stuff :P. ^_^

Main riff:
E|-----------------------------------------------|
B|-2-2-2-3-3-3-0-0-0-3-3-3-2-0-2-0---------------|
G|-2-2-2-2-2-2-2-2-2-2-2-2-2-2-2-2---------------|
D|-----------------------------------------------|
A|-----------------------------------------------|
E|-----------------------------------------------|

Half way through the verse, begin to play:
(Palm Muted)
E|----------------------------------------------|
B|----------2-----------2-------2-3-2-0---------|
G|-2-2-2-----2-2-2-2----2-2---------------------|
D|----------------------------------------------|
A|----------------------------------------------|
E|----------------------------------------------|
[ Tab from: http://www.guitaretab.com/b/betty-curse/81044.html ]
Through the chorus, the main riff is played, (in guitar and some sort of strings, but I
this is what the second guitar is playing:
E|---------------------------------------------------------------|
B|---------------------------------------------------------------|
G|---------------------------------------------------------------|
D|--7-7-7-7-7-7-7-7-7-7-7-7-7-7--9-9-9-9-9-9-9-9-9-9-9-9-9-9-9---|
A|--7-7-7-7-7-7-7-7-7-7-7-7-7-7--9-9-9-9-9-9-9-9-9-9-9-9-9-9-9---|
E|--5-5-5-5-5-5-5-5-5-5-5-5-5-5--7-7-7-7-7-7-7-7-7-7-7-7-7-7-7---|

E|--------------------------------------------------------------|
B|--------------------------------------------------------------|
G|--------------------------------------------------------------|
D|4-4-4-4-4-4-4-4-4-4-4-4-4---2-2-2-2-2-2-2-2-2-2-2-2-2-2-------|
A|4-4-4-4-4-4-4-4-4-4-4-4-4---2-2-2-2-2-2-2-2-2-2-2-2-2-2-------|
E|-2-2-2-2-2-2-2-2-2-2-2-2-2---0-0-0-0-0-0-0-0-0-0-0-0-0-0------|

So, itíd be:
	A5
God this hurts,
			   B5
It really couldnít get much worse,
           F5
The love we had,
E5
Wonít come back


Through the second verse, play the palm muted verse riff:
(Palm Muted)
E|-----------------------------------------------|
B|----------2-----------2-------2-3-2-0----------|
G|-2-2-2-----2-2-2-2----2-2----------------------|
D|-----------------------------------------------|
A|-----------------------------------------------|
E|-----------------------------------------------|

Then, chorus again.

For the bridge, itís literally just B5 played with a tremolo effect,

And for the big long "God this huuuuuuuuuuurrrrrrrrrrrrrrrrrrrtttts", wait a while, and
start playing the main riff (it leads into the chorus).

http://www.bettycurse.co.uk/site.php
Related for God This Hurts tab