Song name
# A B C D E F G H I J K L M N O P Q R S T U V W X Y Z

Betty Curse - Beautiful Together tab

I originally started out trying to find this tab to learn it, but no web-site has it. So 
decided to tab it myself. (its a f*@;ing brilliant song)
There were a couple of fill-ins in the recording but i didn't include them cause there 
on keyboards, and this song only really needs one guitar. Anyway, enjoy!

CHORUS

E/-----------------------------------------------------------------|
B/-8-8-8-8-8-8-8-8-5-5-5-5-5-5-5-5-5-8-8-8-8-8-8-8-5-5-5-5-5-5-5-5-|
G/-5-5-5-5-5-5-5-5-5-5-5-5-5-5-5-5-5-5-5-5-5-5-5-5-5-5-5-5-5-5-5-5-|
D/-----------------------------------------------------------------|
A/-----------------------------------------------------------------|
E/-----------------------------------------------------------------|

E/-----------------------------------------------------------------|
B/-6-6-6-6-6-6-6-6-3-3-3-3-3-3-3-3-3-6-6-6-6-6-6-6-3-3-3-3-3-3-3-3-|
G/-3-3-3-3-3-3-3-3-3-3-3-3-3-3-3-3-3-3-3-3-3-3-3-3-3-3-3-3-3-3-3-3-|
D/-----------------------------------------------------------------|
A/-----------------------------------------------------------------|
E/-----------------------------------------------------------------|

VERSE (This comes in after the first line, let the A string notes ring)

E/---------------------------------------------------------------------|
B/---------------------------------------------------------------------|
G/---------------------------------------------------------------------|
D/--------15--14--12-------15--14--12------15--14--12------15--14--12--|
A/--(15)-------------(13)-------------(13)------------(12)-------------|
E/---------------------------------------------------------------------|


This part plays through the second verse (all notes ring)

E/------------------------------------------------------------------------|
B/-------------------------------------(3)--------------------------------|
G/------(5)------------(3)-----------------------(5)----------------------|
D/-(5)------------(5)-----------(3)---------(3)---------------------------|
A/------------------------------------------------------------------------|
E/------------------------------------------------------------------------|


Thats pretty much it really. Good luck.
Tap to rate this tab
 
# A B C D E F G H I J K L M N O P Q R S T U V W X Y Z