Song name
# A B C D E F G H I J K L M N O P Q R S T U V W X Y Z

Betty Curse - Met On The Internet tab

Help us improve GuitareTab! Take a short survey!
A lead guitar is played in the chorus, but i didn't work it out. If someone else knoes
maybe they could have a go.
But anyway, this is what i've got.

intro
e------------------------------------------------------------|
b------------------------------------------------------------|
g-(slide the pick from the bridge to neck slowly for 4 beats)
d-///////////////////////////////////////////////////////////
a-///////////////////////////////////////////////////////////
e-///////////////////////////////////////////////////////////

e-------------------------------------|
b-------------------------------------|
g-------------------------------------|
d---2-2-2-2-2-2-2-2-2-2-2-2-2-2-2-2---|
a---2-2-2-2-2-2-2-2-2-2-2-2-2-2-2-2---|
e---0-0-0-0-0-0-0-0-0-0-0-0-0-0-0-0---|
P.M - -   - -   -   - -   - -   -

e-------------------------------------|
b-------------------------------------|
g-------------------------------------|
d---2-2-2-2-2-2-2-2-2-2-2-2-2-2-2-2---|
a---2-2-2-2-2-2-2-2-2-2-2-2-2-2-2-2---|
e---0-0-0-0-0-0-0-0-0-0-0-0-0-0-0-0---|
P.M - -   - -   -   - - - - - - - -

verse- why bother look at your father
e-------------------------------------|
b-------------------------------------|
g-------------------------------------|
d---2-2-2-2-2-2-2-2-2-2-2-2-2-2-2-2---|
a---2-2-2-2-2-2-2-2-2-2-2-2-2-2-2-2---|
e---0-0-0-0-0-0-0-0-0-0-0-0-0-0-0-0---|
P.M - -   - -   -   - -   - -   -

       your mother's such a mess
e-------------------------------------|
b-------------------------------------|
g-------------------------------------|
d---2-2-2-2-2-2-2-2-2-2-2-2-2-2-2-2---|
a---2-2-2-2-2-2-2-2-2-2-2-2-2-2-2-2---|
e---0-0-0-0-0-0-0-0-0-0-0-0-0-0-0-0---|
P.M - -   - -   -   - -   - -   -

     why bother look at your father
e-----------------------------------|
b-----------------------------------|
g-----------------------------------|
d--5-5-5-5-5-5-5-5-5-5-5-5-5-5-5-5--|
a--5-5-5-5-5-5-5-5-5-5-5-5-5-5-5-5--|
e--3-3-3-3-3-3-3-3-3-3-3-3-3-3-3-3--|
P.M- - - - - - - - - - - - - - -

     met on the internet
e-----------------------------------|
b-----------------------------------|
g--7-7-7-7-7-7-7-7-7-7-7-7-7-7-7-7--|
d--7-7-7-7-7-7-7-7-7-7-7-7-7-7-7-7--|
a--5-5-5-5-5-5-5-5-5-5-5-5-5-5-5-5--|
e-----------------------------------|
P.M- -   - -   -   - -   - -   -

e-------------------------------------|
b-------------------------------------|
g-------------------------------------|
d---2-2-2-2-2-2-2-2-2-2-2-2-2-2-2-2---| repeat 4
a---2-2-2-2-2-2-2-2-2-2-2-2-2-2-2-2---| times
e---0-0-0-0-0-0-0-0-0-0-0-0-0-0-0-0---|
P.M - -   - -   -   - -   - -   -


bridge- walk away, walk away, give me some strength
e----------------------------------------------------------------------|
b----------------------------------------------------------------------|
g----------------------------------7-7-7-7-9-9-9-9-11-11-11-11-7-7-7-7-|
d--5-5-5-5-7-7-7-7-5-5-5-5-7-7-7-7-x-x-x-x-x-x-x-x-x-x-x-x-x-x-x-x-x-x-|
a--x-x-x-x-x-x-x-x-x-x-x-x-x-x-x-x-5-5-5-5-7-7-7-7-9--9--9--9--5-5-5-5-|
e--3-3-3-3-5-5-5-5-3-3-3-3-5-5-5-5-------------------------------------|

e---------------------------------------------|
b---------------------------------------------|
g---9-9-9----9--9---9---9--9---9---9--9---9---|
d---9-9-9----9--9---9---9--9---9---9--9---9---|
a---7-7-7----7--7---7---7--7---7---7--7---7---|
e---0-0-0----0--0---0---0--0---0---0--0---0---|
P.M - -

 (go!) it's just a matter of time before i take you there
e----------------------------------------------------|
b----------------------------------------------------|
g-2--------------------------------------------------|
d-2------------------------2------------2------------|
a-0------------------------2------------2------------|
e--------------------------0--3p0-3p0-0-0--3p0-3p0-0-|

 c'mon c'mon everyones got their price   I'm the queen of the
e---------------------------------------------------|
b---------------------------------------------------|
g-2-------------------------------------4-----------|
d-2------------------------5------------4-----------|
a-0------------------------5------------2-----------|
e--------------------------3------------------------|

night
e-------------------------------------|
b-------------------------------------|
g-------------------------------------|
d---2-2-2-2-2-2-2-2-2-2-2-2-2-2-2-2---|
a---2-2-2-2-2-2-2-2-2-2-2-2-2-2-2-2---|
e---0-0-0-0-0-0-0-0-0-0-0-0-0-0-0-0---|
P.M - -   - -   -   - -   - -   -


It all sort of repeats through the rest of the song from here on in so just listen out
the chords in the recording and the song is pretty much there in front of you.
Related for Met On The Internet tab