Song name
# A B C D E F G H I J K L M N O P Q R S T U V W X Y Z

Between The Buried And Me - Medicine Wheel tab

Band: Between the Buried and Me
Song: Medicine Wheel
Victory Records.
Tabber: Senses X Fail

this is a easy song it took me about a half an 
hour to figure it all out. enjoy.
-------------------------------------------------------------------
Guitar 1 (Db Gb B E Ab Db)

Guitar 2 (Db Gb B E Ab Db)

Guitar 3 (Db Gb B E Ab Db)
-------------------------------------------------------------------


Guitar 1

Intro:
Db|----------------------------------------|
Ab|--------------------7b------------------|
E |------------3/7---------0--------7/-----|
B |---5--5---4-------0-------0------7/-----|
Gb|--------3-------------------------------|
Db|-0--0-----------------------------------|

Verse, Chorus etc....
Db|----------------------------------------|
Ab|-----------------------7b---------------|
E |-------------3/7-0--------0------7/-----|
B |---5---5---4--------0-0----0-0---7/-----|
Gb|---------3------------------0-----------|
Db|-0--0-----------------------------------|


-------------------------------------------------------------------


Guitar 2

Intro:
Db|-19------------15---------------14b-------|
Ab|------------------------------------------|
E |------------------------------------------|
B |------------------------------------------|
Gb|------------------------------------------|
Db|------------------------------------------|

Verse, Chorus etc....
Db|-19-15-15-14-14-12/10---19-19-15-15-14-14-12/10/12/10--|
Ab|-------------------------------------------------------|
E |-------------------------------------------------------|
B |-------------------------------------------------------|
Gb|-------------------------------------------------------|
Db|-------------------------------------------------------|


-------------------------------------------------------------------

Guitar 3
this isnt a major part but hey might as well tab it
This comes in towards the end of the song as guitar 2 
is playing his part.

Verse,Chorus etc....
Db|-20-20-20-20---20-20-20-20---|
Ab|-----------------------------|
E |-----------------------------|
B |-----------------------------|
Gb|-----------------------------|
Db|-----------------------------|


-------------------------------------------------------------------

This is a cool instrumental by the almighty BTBAM
I am pretty sure this is close to 100% accurate.
Any comments or suggestions related to any tab is submit
email me at blforsythe@zoominternet.net.... Thanks

Senses X Fail






Tap to rate this tab
 
# A B C D E F G H I J K L M N O P Q R S T U V W X Y Z