Song name
# A B C D E F G H I J K L M N O P Q R S T U V W X Y Z

Between The Buried And Me - Disease Injury Madness tab

This is my tab for the second "rock" part after the later clean stuff in the second half
"Disease, Injury, Madness" off of The Great Misdirect (around 8:45 in the song).  this
probably my favorite song off the whole album, maybe because of the two southern/rock 
in it.  anyway, here goes...

This is in BTBAM's tuning...1 1/2 steps down:

C#|---
G#|---
E |---
B |---
F#|---
C#|---


Guitar 1
C#||--------------------------------------------------------------|
G#||--------------------------------------------------------------|
E ||------------------------12/14--10------10/12-----------12/14--|
B ||--12---0--10--0--12--0--------------0---------12----12--------|
F#||--------------------------------------------------------------|
C#||--------------------------------------------------------------|


Guitar 2
C#||--------------------------------------------------------------|
G#||--------------------------------------------------------------|
E ||------------------------17/19--17------17/19------------17----|
B ||--19---0--17--0--19--0--------------0---------15----15--------|
F#||--------------------------------------------------------------|
C#||--------------------------------------------------------------|

Guitar 1
|---------------------------------------------------|-------------------|
|---------------------------15----------------------|-------------------|
|12-----12--14--12--15--12------12------12--14--12--|--15--12-----------|
|---------------------------------------------------|----------10---12--|
|---------------------------------------------------|-------------------|
|---------------------------------------------------|-------------------|


Guitar 2
|---------------------------17----------------------|-------------------|
|-----------17------18----------------------17------|--18---------------|
|19-----19------19------19------19------19------19--|------19-----------|
|---------------------------------------------------|----------17---19--|
|---------------------------------------------------|-------------------|
|---------------------------------------------------|-------------------|
Tap to rate this tab
 
# A B C D E F G H I J K L M N O P Q R S T U V W X Y Z