Song name
# A B C D E F G H I J K L M N O P Q R S T U V W X Y Z

Between The Buried And Me - Desert Of Song tab

Hi everybody, this is my first time creating a tab so please give me some slack for the
that will happen. This is the "Desert of Song" by Between the Buried and Me, on their
album "The Great Misdirect". I only have intro and chorus as of now, but I will be 
If you have any corrections for me please email them at...
elijahsearle@gmail.com

Also seeing as this is the first tab up, feel free to use it in another tab, if you do
some of mine, please credit me.
Remember this is my first running.

Tuning: C# Standard (C#,F#,B,E,G#C#)
Note: There are two guitars, and I will try to state both...when there is a difference.

Key:
Slide Up:/
Slide Down:\
Hammer On: h
Pull off: p
Ring: r
Upstroke: ^ (ebgdae)
Downstroke: v (eadgbe)

Intro Part 1 [0:06]-[0:23]
e|-------5r---7--7r----------3h5-3------------------0r--------------0r------|
B|--3/5--3h5--8--5r----3/5---5---5----------------6----6----------3----3----|
G|--2/4-------7--------2/4---5---5--------2-4-5-7--------4----2h4--------4--|
D|----------------------------------2-3-5------------------2r--------------2|
A|--------------------------------------------------------------------------|
E|--------------------------------------------------------------------------|

Intro Part 2 [0:23]-[0:42] (Slight difference, that I can't figure out yet.)
e|-------5r---7--7r----------3h5-3------------------0r--------------0r------|
B|--3/5--3h5--8--5r----3/5---5---5----------------6----6----------3----3----|
G|--2/4-------7--------2/4---5---5--------2-4-5-7--------4----2h4--------4--|
D|----------------------------------2-3-5------------------2r--------------2|
A|--------------------------------------------------------------------------|
E|--------------------------------------------------------------------------|

Verse 1 [0:43]-[0:56] (This has some mid upstrokes so it is hard to count the actual
I will try my best to get the pattern correct.)

e|-0-000-0-00-0-000-0-00-0-000-0-00-0-000-0-00|
B|-0-000-0-00-0-000-0-00-3-333-3-33-0-000-0-00|
G|-1-111-1-11-0-000-0-00-2-222-2-22-1-111-1-11|
D|-2-222-2-22-2-222-2-22-3-333-3-33-2-222-2-22|
A|-2-----2----3-----3---------------2-----2---|
E|-0-----0----3-----3---------------0-----0---|
   v ^v^ v ^v v ^v^ v ^v v ^v^ v ^v v ^v^ v ^v

I need to go, ill be back to add more later!
Tap to rate this tab
# A B C D E F G H I J K L M N O P Q R S T U V W X Y Z